Bon Jovi

home > Bon Jovi

Dry county (parte 02) Tab

Bon Jovi

Difficulty: EasyEasy

by Getulio+Filho

tuner correct add songbook print version text version save to e-mail
chordsukulelecavacokeyboardtabbassdrumsharmonicsflute Guitar Pro
chords

Dry county (parte 02)

  		E-----------12----------12----------12----------12----------12-12-12- 
A--10-12-10----10-12-10----10-12-10----10-12-10----10-12-10---------- 
 
 
 
A--12-10-12----12---- 
D-----------10----10--12-10-12--12----------------------------------------------------- 
G------------------------------9---9--11-12-9-11-11-9-11---11-9-11--------------------- 
b--------------------------------------------------------10--------12b14----12b14-10-12 
e------------------------------------------------------------------------12------------ 
 
 
b-10-12----12---------------------------------- 
e-------10----10-12b14----12b14-10-12-10-12b14- 
 
esse  o solo dessa musica, depois disso vc repete o solo 01, ou seja o que  
eu postei antes 
brigado e valeu pela espera.. 

	  

Search Paypal
auto scroll beats size up size down change color hide chords drawings
tab show chords e-chords YouTube Clip e-chords hide all tabs e-chords go to top tab