Bon Jovi

home > Bon Jovi

Diamond Ring Tab

Bon Jovi

Difficulty: AdvancedAdvanced

by darkfall

tuner correct add songbook print version text version save to e-mail
chordsukulelecavacokeyboardtabbassdrumsharmonicsflute Guitar Pro
chords

Diamond Ring

Year: 1995 - Album: These Days

  		Diamond Ring - Bon Jovi 
 
 
Intro 
Am/E      Am/G 
e|-------------| 
B|-------------| 
G|--2-----2----| 
D|--2-----2----| 
A|-------------| 
E|--0-----3----| 
 
Fig.1 
Am 
e|-------------------------| 
B|-------------------------| 
G|------2---2----(2)---2---| 
D|------2---2----(2)---2---| 
A|------0------------------| 
E|(0-3)--------0-----3-----| 
 
Fig.2 
Dm 
e|-------------------------------| 
B|-------3---3--------3--3-------| 
G|-------2---2--------2--2-------| 
D|-------0------------0-----0----| 
A|--0--3--------0--3-----------3-| 
E|-------------------------------| 
 
Fig.3 
Dm                     F 
e|-----------0------1----------1--1-----| 
B|--------3---------3----------1--------| 
G|-----2--------2---2----------2--------| 
D|--0------------------------3----------| 
A|------------------------3-------------| 
E|---------------------1----------------| 
 
Verse 2: 
Guitar 2: 
E|------------------------------------------| 
B|-13---13---12---12----10---10-----8---8---| 
G|------------------------------------------| x2 
D|----14---14---12---12----10---10----9---9-| 
A|------------------------------------------| 
e|------------------------------------------| 
 
E|--------------------------------------------| 
B|-15----15----13----13-----15---15----15-----| 
G|--------------------------------------------| 
D|----15----15----14----14----15----15----15--| 
A|--------------------------------------------| 
e|--------------------------------------------| 
 
E|------------------------------------------| 
B|-13---13---12---12----10---10-----8---8---| 
G|------------------------------------------| 
D|----14---14---12---12----10---10----9---9-| 
A|------------------------------------------| 
e|------------------------------------------| 
 
Bridge: 
Dm              Am 
E|----------1------------0-----| 
B|------3---3------------1-----| 
G|----2-----2--------2---2-----| 
D|-0---------------2-----2-----| 
A|--------------0--------------| 
e|-----------------------------| 
Dm              Am 
E|----------1------------0-----| 
B|------3---3------------1-----| 
G|----2-----2--------2---2-----| 
D|-0---------------2-----2-----| 
A|--------------0--------------| 
e|-----------------------------| 
G             F           G         E7 
E|--------3------------1---------3---------0--| 
B|--------3------------1---------3---------0--| 
G|--------0------------2---------0---------1--| 
D|-----0------------3---------0---------0-----| 
A|---2-----------3----------2---------2-------| 
e|-3----------1-----------3---------0---------| 
 
Solo: 
E|--0-----------------------| 
B|--0-----------------------| 
G|--2--/4/5-4-2-0-----------| 
D|--------------------------| 
A|------------------/7~-----| 
e|--------------------------| 
 
E|--5-----------5--5-----------5----------| 
B|----5-------5------5-------5------------| 
G|------5---5----------5---5--------------| 
D|--------7--------------7---------7p5h7~-| 
A|----------------------------------------| 
e|----------------------------------------| 
 
E|-------------------------5--8-7~--5h7p5--------| 
B|--5----------------5-6-8-----------------8b10--| 
G|----5--5h-7~----7------------------------------| 
D|-----------------------------------------------| 
A|-----------------------------------------------| 
e|-----------------------------------------------| 
 
E|-5-------------------------------------8-10-10/11--8-10~-| 
B|---8-5----------------5-----------8-10-------------------| 
G|--------7b9r7-5-------------5-7/9------------------------| 
D|-----------------7-5----5h7------------------------------| 
A|---------------------------------------------------------| 
e|---------------------------------------------------------| 
 
E|--8-----8----8--------------------| 
B|--8h10--8h10-8h10--8h10p8---------| 
G|--------------------------9\7~----| 
D|----------------------------------| 
A|----------------------------------| 
e|----------------------------------| 
 
E|-0-0-0----------------------------| 
B|-1/3/5----------------------------| 
G|----------7p5-------7p5-----------| 
D|---------------7p5------7p5-------| 
A|-----------------------------5h7~-| 
e|----------------------------------| 
 
C-part: 
F                        G 
e|-----------1-------------------3------| 
B|-----------1-------------------3------| 
G|-----------2-------------------0------| 
D|--------3-------------------0---------| 
A|-----3------------0------2------------| 
E|--1--------------------3--------------| 
Am/C           Am/B        Am 
e|--------0----------0----------0-----| 
B|--------1----------1----------1-----| 
G|--------2----------2----------2-----| 
D|-----2----------2----------2--------| 
A|--3----------2----------0-----------| 
E|------------------------------------| 
F                   E7 
e|----------1---------------0---------| 
B|----------1---------------0---------| 
G|----------2---------------1---1-----| 
D|-------3---------------0------0-----| 
A|----3---------------2---------2-----| 
E|-1----------------0-----------0-----| 
 
{Intro} 
{Fig.1} 
Diamond ring, wear it on your hand {Fig.1} 
It's gonna tell the world, I'm your only man 
Diamond ring, {Fig.2} 
Diamond ring {Fig.1} 
Baby, you're my everything, diamond ring {Fig.3} 
 
{Fig.1} 
Red, red rose brought it home to you {Fig.1}+{Verse 2} 
Blood red rose, tells me that you're true 
Red, red rose, {Fig.2} 
Blood-red rose {Fig.1} 
Like a fire inside that grows, blood-red rose {Fig.3} 
 
When you're hungry, I will fill you up {Bridge} 
When you're thirsty, drink out of my loving cup 
When you're crying, I'll be the tears for you 
There is nothing that I wouldn't do for you 
 
{Solo}+{Fig.1&2} 
When you're hungry, I will fill you up {Bridge} 
When you're thirsty, drink out of my loving cup 
When you're crying, I'll be the tears for you 
There is nothing that I wouldn't do for you 
 
Don't you know, I bleed every night you sleep {C-part} 
'Cause I don't know if I'm in your dreams 
I want to be your everything... 
 
Diamond ring, wear it on your hand {Fig.1} 
It's gonna tell the world, I'm your only man 
Diamond ring, {Fig.2} 
Diamond ring {Fig.1} 
 
Baby, you're my everything, diamond ring Dm F Am 
Darling, you're my everything, diamond ring Dm F Am 
Now, you've got me on your string... Dm F 
Diamond ring {Fig.1}+{Verse 2} 
	  

Full key step upFull key step up
Half key step upHalf key step up
Half key step downHalf key step down
Full key step downFull key step down
Search Paypal
auto scroll beats size up size down change color hide chords drawings
tab show chords e-chords YouTube Clip e-chords hide all tabs e-chords go to top tab