Bon Jovi

home > Bon Jovi

Blaze Of Glory Tab

Bon Jovi

Difficulty: nolevelnolevel

by PAULLET3

tuner correct add songbook print version text version save to e-mail
chordsukulelecavacokeyboardtabbassdrumsharmonicsflute Guitar Pro
chords

Blaze Of Glory

  		

E|--15-----15--------------------------------------------------------------------------------------------------| 
B|--18b20~-18b20~~---------------------------------------------------------------------------------------------| 
G|-------------------14b16-14-12p10------14r12p10----------10~-10~-----------12/14~~\12~--12b14--10-12~10~~----| 
D|----------------------------------12-------------12--12~---------12---12~--12/14~~\12~-----------------------| 
A|-------------------------------------------------------------------------------------------------------------| 
E|-------------------------------------------------------------------------------------------------------------| 

E|-------------------------------------------------------------------------------------------------------------| 
B|---------------------------------------------------------------------------------------------------13--------| 
G|--------------------------------------------------------------10------12----14r12--10h12p10------------14r12-| 
D|---------------------------------------------------------------------------------------------12--------------| 
A|-12---10\8-----8b---8b---8b--8b---8b----8--10-8/10---8h10/12------12-----------------------------------------| 
E|-----------9------9----9----9---9-----9----------------------------------------------------------------------| 

                                                                                                \/ 
E|-------------------------------------------------------------------------------13b15-15r13----22------| 
B|-------10--------------------------------13-13-13-13------------10---13-------------------------------| 
G|---10b----10b----------10b-----12b----12b14-13-14r12--10-10~--10-------10-----------------------------| 
D|---------------12-12~-------12-------------------------------------------10---------------------------| 
A|------------------------------------------------------------------------------------------------------| 
E|------------------------------------------------------------------------------------------------------| 


E|----22\20/22/25\20/22--| 
B|-----------------------|   
G|-----------------------| 
D|-----------------------| 
A|-----------------------| 
E|-----------------------|
	  

Search Paypal
auto scroll beats size up size down change color hide chords drawings
tab show chords e-chords YouTube Clip e-chords hide all tabs e-chords go to top tab