Bon Jovi

home > Bon Jovi

Bad Medicine Tab

Bon Jovi

Difficulty: ExpertExpert

by Shakau

tuner correct add songbook print version text version save to e-mail
chordsukulelecavacokeyboardtabbassdrumsharmonicsflute Guitar Pro
chords

Bad Medicine

Year: 1988 - Album: Cross Road

(Bon Jovi / Child / Sambora)

  		Tom: G 
		 
b - Bend 
r - soltar bend 
l - let ring 
s - soltar let ring 
m - trêmulo 
 - Armônico Artificial (+12) 
 - Armônico Artificial (+7) 

Solo {Intro} (Guitarra, distorção): 


|--------------|        |-------------|(3x)    |--------------| 
|--------------|        |-------------|(3x)    |--------------| 
|-4---------0-4|        |-4----------0|(3x)    |-4---------0-4| 
|-2-0---0-2---2|        |-2-0---0-2---|(3x)    |-2-0---0-2---2| 
|-----2--------|        |-----2-------|(3x)    |-----2--------| 
|--------------|        |-------------|(3x)    |--------------| 




Solo: 


|--------------------------------------------------------------| 
|-14-12-14-12--14-12--14-12--14-12--14-12--14-12--14-12--14--12| 
|-14-12-14-12--14-12--14-12--14-12--14-12--14-12--14-12--14--12| 
|------------14-----14-----14-----14-----14-----14-----14--14--| 
|--------------------------------------------------------------| 
|--------------------------------------------------------------| 



|--------------12-----------------------------------------| 
|---s15b17----r---15-12-------------------------------------| 
|---s-------------------14-12----14----12-13--------------------------14-14-12| 
|-----------------------------12----14-------14-12-14l---s--------------------| 
|-----------------------------------------------------------------------------| 
|-----------------------------------------------------------------------------| 



|----------------------12-12-------------------12-12------------12-5-5------------| 
|----------------| 
|---------12-12----x--x-------x--x12-12--x--x-------------------------------------| 
|14-12-13--x--x--------------------x--x-------------------------------------------| 
|---------------------------------------------------------------------------------| 
|---------------------------------------------------------------------------------| 


|---------------------------13-15-17----------14-15-17----------16-17-18-19-| 
|------------------13-15-17----------14-15-17----------16-17-18-------------| 
|---------12-14-16----------------------------------------------------------| 
|12-14-15-------------------------------------------------------------------| 
|---------------------------------------------------------------------------| 
|---------------------------------------------------------------------------| 
	  

Full key step upFull key step up
Half key step upHalf key step up
Half key step downHalf key step down
Full key step downFull key step down
Search Paypal
auto scroll beats size up size down change color hide chords drawings
tab show chords e-chords YouTube Clip e-chords hide all tabs e-chords go to top tab