Bon Jovi

home > Bon Jovi

All About Loving You Tab

Bon Jovi

Difficulty: BeginnerBeginner

by Aaron%2E

tuner correct add songbook print version text version save to e-mail
chordsukulelecavacokeyboardtabbassdrumsharmonicsflute Guitar Pro
chords

All About Loving You

  		This tab only covers the electric guitar part but 
 I know the intro part for acoustic so I'll put that on here and 
 I'm sure you can find the rest  
of the acoustic guitar bit somewhere  
else,this is probably the best version of this song that your going to find 
 unless you have the official tab book :) 

Standard Tuning (EADGBE)   !!!!DISTORTION NEEDED!!!!  not too much though 


~ =Vibrato (Wiggle your finger on the string)    :) 
3/5 =Slide from the 3rd fret to the 5th fret 
12b13 =Hit the 12th fret normally then slide down to the 13th fret whilst                                
                                                        bending the string. 
12h13 =Hit the 12th fret normally then slam your finger down on the 13th fret 
                                                    

Order of Play at the bottom :) 


INTRO (Electric) 

e-------------------------------------------------------------------------| 
B--------8--------10------12b13--12h13--12-10-12-8---3/5------------------| 
G------------7-------------------13-----------13---------7----------------| 
D-------------------------------------------------------------------------| 
A-------------------------------------------------------------------------| 
E-------------------------------------------------------------------------| 

INTRO (Acoustic)  hope it's not too confusing this bit. 

e---3----3----3-----3----3----3----3----3---------------------------------| 
B----3----3----3-----3----3----3----3----3--------------------------------| 
G-----0----0----2-----2----0----0----0----0-------------------------------| 
D-------------------------------------------------------------------------| 
A------------------------3----3-------------------------------------------| 
E--3----3----2----2--------------3----3-----------------------------------| 

FILL (Electric) 
(Bit Before Chorus) 

e---3-------------| 
B------3---x6--5--| 
G-----------------|   
D-----------------| 
A-----------------| 
E-----------------| 


Chorus (Electric) 

e-------------------------------------------------------------------------| 
B-------------------------------------------------------------------------| 
G-------7----5-------------------7----9----5----7-------------------------| 
D--5----7----5--------------5----7----9----5----7-------------------------| 
A--5----5----3---3-5-6-8----5----5----7----3----5-------------------------| 
E--3------------------------3---------------------------------------------| 


BRIDGE (Electric) 

e-------------------------------------------------------------------------| 
B-------------------------------------------------------------------------| 
G---------------------------------------7---------------------------------| 
D---------------------------------------7---------------------------------| 
A-------2~~--3~~---3-2------2~~--3~~----5---------------------------------| 
E---5~~-----------------5~~-----------------------------------------------| 

SOLO (Electric)     For this bit never take 
 your fingers off the strings              (7 is included) 
 >>>>>>>>>>>>>>>>>>>>>>>>>>>>>>>>>>>>>>>>>>> 
e-------------------------------------------------------------------------| 
B---8-8-----8-8---8---10-10-----10-10---10---12b13-12h13-12-10-12-8-------| 
G-------7-7-----7---7-------7-7-------7----7------------------------------| 
D-------------------------------------------------------------------------| 
A-------------------------------------------------------------------------| 
E-------------------------------------------------------------------------| 



INTRO 

FILL 

Chorus 

FILL               <<<<<<<<<<<<< Order of Play :) 

Chorus 
                            Rate please this is my first tab :) 
BRIDGE 

SOLO 

Chorus 
	  

Search Paypal
auto scroll beats size up size down change color hide chords drawings
tab show chords e-chords YouTube Clip e-chords hide all tabs e-chords go to top tab