Bon Jovi

home > Bon Jovi

All about lovin you Tab

Bon Jovi

Difficulty: ExpertExpert

by d%40nilo+89

tuner correct add songbook print version text version save to e-mail
chordsukulelecavacokeyboardtabbassdrumsharmonicsflute Guitar Pro
chords

All about lovin you

  		        All About Lovin You-Bon Jovi   
  
 
E|------------------------------------------------------------| 
B|---8~---------10~---12b(13)----12h13--12-10-12-8----3/5-----| 
G|---------7---------------------12------------------------7~-| 
D|------------------------------------------------------------| 
A|------------------------------------------------------------| 
E|------------------------------------------------------------| 
 
                 
E|------3--------3----------3--------3-----------3--------3------| 
B|--------3--------3----------3--------3-----------3--------3----| 
G|----------0--------0----------2--------2-----------0--------0--| 
D|-------------------------------------------2---------2---------| 
A|-------------------------------------------3---------3---------| 
E|---3---------3---------2---------2-----------------------------| 
 
 G 
E---3--------3------| 
B-----3--------3----| 
G-------0--------0--| 
D-------------------| 
A-2--------2--------| 
E-3--------3--------|   
 
               
E|---------3----| 
B|------3-------| 
G|---0----------| 
D|--------------| 
A|--------------| 
E|--------------|4x 
 
 
 
E|---3--------|           
B|-------3----|     
G|------------| 
D|------------| 
A|------------|  
E|------------|6x 
 
 
    G5   D5   C5                C5  D5  E5   C5  D5 
E|-----|----|----|-----------|-----|-------|---------| 
B|-----|----|----|-----------|-----|-------|---------| 
G|-----|--7-|--5-|-----------|-----|-7---9-|--5--7---| 
D|---5-|--7-|--5-|-----------|---5-|-7---9-|--5--7---| 
A|---5-|--5-|--3-|---3-5-6-8-|---5-|-5---7-|--3--5---| 
E|---3-|----|----|-----------|---3-|-------|---------| 
 
E|--------------------------------------------------| 
B|--------------------------------------------------| 
G|----------------------------------------------7---| 
D|----------------------------------------------7---| 
A|--------2~-----3~-----3-2----------2~-----3~--5---| 
E|---5~------------------------5~-------------------| 
    
 
Solo: 
 
                                                 
E|--------------------------------------------------------------------------| 
B|---8-------8-------8----10-------10------10----12b(13)--12h13--12-10-12-8~| 
G|-------7-------7-----7-------7--------7-----7-----------------------------| 
D|--------------------------------------------------------------------------| 
A|--------------------------------------------------------------------------| 
E|--------------------------------------------------------------------------| 
 
 
E|-------------------------------------------3-------| 
B|---------------------1---------------------3-------| 
G|---5/7--9---7---4----0---------------------0-------| 
D|---------------------2---------------------0-------| 
A|---------------------3---------------------2-------| 
E|-------------------------------------------3-------| 
 
 
 

	  

Full key step upFull key step up
Half key step upHalf key step up
Half key step downHalf key step down
Full key step downFull key step down
Search Paypal
auto scroll beats size up size down change color hide chords drawings
tab show chords e-chords YouTube Clip e-chords hide all tabs e-chords go to top tab