Bobaflex

Vampire

Bobaflex

tabs

by  UBIRBOMFIM

save to print version add songbook text version e-mail correct tuner
chordsukulelecavacokeyboardtabbassdrumsharmonicaflute Guitar Pro
close

there isn't a video lesson for this song

chords

Vampire

Key:  C More
Vampire Key GG
Vampire Key G#G#
Vampire Key AA
Vampire Key A#A#(one step down)
Vampire Key BB(half step down)
Vampire Key CC(original key)
Vampire Key C#C#(half step up)
Vampire Key DD(one step up)
Vampire Key D#D#
Vampire Key EE
Vampire Key FF
Vampire Key F#F#
	  		

0:01 Pick slide 
                            1st & 3rd      2nd & 4th 
0:02                       |           | |             | 
D-------------------------|-------------|----------------| 
A-------------------------|-------------|----------------| 
F-------------------------|----5-----7--|-----5-------5--| 
C-0-0-0-0-0-0-0-0-0-0-0-0-|3h5-----5----|-3h5-----3h5----| 
G-0-0-0-0-0-0-0-0-0-0-0-0-|-------------|----------------| 
C-0-0-0-0-0-0-0-0-0-0-0-0-|-------------|----------------| 

                            1st & 3rd      2nd & 4th 
0:20                       |           | |             | 
D-------------------------|-------------|----------------| 
A-------------------------|-------------|----------------| 
F-------------------------|----5-----7--|-----5-------5--| 
C-0-----------------------|3h5-----5----|-3h5-----3h5----| 
G-0-----------------------|-------------|----------------| 
C-0-----------------------|-------------|----------------| 

0:37 
D-------------------------| 
A-------------------------| 
F---------3---2-----------| 
C---------3---2---5---3---| 
G---------1---0---5---3---| 
C-----------------5---3---| 

0:41 
D----------------------------------------------------------| 
A----------------------------------------------------------| 
F----------------------------------------------------------| 
C-0---0-0-3---3-3-5---5-5-8--8--0---0-0-3---3-3-5---5-5-8\-| 
G-0---0-0-3---3-3-5---5-5-8--8--0---0-0-3---3-3-5---5-5-8\-| 
C-0---0-0-3---3-3-5---5-5-8--8--0---0-0-3---3-3-5---5-5-8\-| 

0:58 
D----------------------------------------------------| 
A----------------------------------------------------| 
F----------------------------------------------------| 
C-0-0-----3-3-----5-5-----8--7--0---0-----3-3-----5~-| 
G-0-0-----3-3-----5-5-----8--7--0---0-----3-3-----5~-| 
C-0-0-----3-3-----5-5-----8--7--0---0-----3-3-----5~-| 

                            1st & 3rd      2nd & 4th 
1:07                       |           | |             | 
D-------------------------|-------------|----------------| 
A-------------------------|-------------|----------------| 
F-------------------------|----5-----7--|-----5-------5--| 
C-0-0-0-0-0-0-0-0-0-0-0-0-|3h5-----5----|-3h5-----3h5----| 
G-0-0-0-0-0-0-0-0-0-0-0-0-|-------------|----------------| 
C-0-0-0-0-0-0-0-0-0-0-0-0-|-------------|----------------| 

                            1st & 3rd      2nd & 4th 
1:16                       |           | |             | 
D-------------------------|-------------|----------------| 
A-------------------------|-------------|----------------| 
F-------------------------|----5-----7--|-----5-------5--| 
C-0-----------------------|3h5-----5----|-3h5-----3h5----| 
G-0-----------------------|-------------|----------------| 
C-0-----------------------|-------------|----------------| 

1:33 
D-------------------------| 
A-------------------------| 
F---------3---2-----------| 
C---------3---2---5---3---| 
G---------1---0---5---3---| 
C-----------------5---3---| 

1:37 
D----------------------------------------------------------| 
A----------------------------------------------------------| 
F----------------------------------------------------------| 
C-0---0-0-3---3-3-5---5-5-8--8--0---0-0-3---3-3-5---5-5-8\-| 
G-0---0-0-3---3-3-5---5-5-8--8--0---0-0-3---3-3-5---5-5-8\-| 
C-0---0-0-3---3-3-5---5-5-8--8--0---0-0-3---3-3-5---5-5-8\-| 

1:54 
D----------------------------------------------------| 
A----------------------------------------------------| 
F----------------------------------------------------| 
C-0-0-----3-3-----5-5-----8--7--0---0-----3-3-----5~-| 
G-0-0-----3-3-----5-5-----8--7--0---0-----3-3-----5~-| 
C-0-0-----3-3-----5-5-----8--7--0---0-----3-3-----5~-| 

2:03 
D-----------------------------------------| 
A-----------------------------------------| 
F-----------------------------------------| 
C-3~--------2~--------3~--------2~--------| 
G-----------------------------------------| 
C-----------------------------------------| 

2:20 
D--------------------------------------------------------------------------------------------------| 
A--------------------------------------------------------------------------------------------------| 
F--------------------------------------------------------------------------------------------------| 
C-333333332222222200000000222233335555555533333333222222223333555577777777555555553333333355555555-| 
G--------------------------------------------------------------------------------------------------| 
C--------------------------------------------------------------------------------------------------| 

2:32 
D--------------------------------------------------| 
A--------------------------------------------------| 
F--------------------------------------------------| 
C-3333333322222222333322220000----333322220000-----| 
G-----------------------------4444------------4444-| 
C--------------------------------------------------| 

2:39 
D----------------------------------------------------------| 
A----------------------------------------------------------| 
F----------------------------------------------------------| 
C-0---0-0-3---3-3-5---5-5-8--8--0---0-0-3---3-3-5---5-5-8\-| 
G-0---0-0-3---3-3-5---5-5-8--8--0---0-0-3---3-3-5---5-5-8\-| 
C-0---0-0-3---3-3-5---5-5-8--8--0---0-0-3---3-3-5---5-5-8\-| 

2:56 
D----------------------------------------------------| 
A----------------------------------------------------| 
F----------------------------------------------------| 
C-0-0-----3-3-----5-5-----8--7--0---0-----3-3-----5~-| 
G-0-0-----3-3-----5-5-----8--7--0---0-----3-3-----5~-| 
C-0-0-----3-3-----5-5-----8--7--0---0-----3-3-----5~-| 


3:05                        1st & 3rd          2nd           4th 
                           |           | |             |   |                              
   | 
D-------------------------|-------------|----------------|------------------------------------| 
A-------------------------|-------------|----------------|------------------------------------| 
F-------------------------|----5-----7--|-----5-------5--|-3---2-----------3---2--------------| 
C-0-0-0-0-0-0-0-0-0-0-0-0-|3h5-----5----|-3h5-----3h5----|-3---2---5---3---3---2---5---3---0~-| 
G-0-0-0-0-0-0-0-0-0-0-0-0-|-------------|----------------|-1---0---5---3---1---0---5---3---0~-| 
C-0-0-0-0-0-0-0-0-0-0-0-0-|-------------|----------------|---------5---3-----------5---3---0~-| 
		  

See also:

tabs Ira! - Poço de Sensibilidade (Solo - Acustico Mtv) tabs Deep Purple - Gypsy Kiss tabs Ira! - Envelheço na Cidade (intro) tabs Deep Purple - Smoke on the Water (solo) tabs Ira! - Eu Quero Sempre Mais (Com Pitty, intro) tabs Ira! - Prisão das Ruas
e-chords

Other versions:

tabs Black Uhuru - Vampire tabs Versailles Philharmonic Quintet - Vampire tabs Bobaflex - Vampire tabs Bat for Lashes - Vampires
auto scroll beats size up size down change color hide chords drawings
tab show chords e-chords YouTube Clip e-chords hide all tabs e-chords go to top tab

share