Bob Marley

home > Bob Marley

Is this Love (ver. 2) Tab

Bob Marley

Difficulty: BeginnerBeginner

by pontua

tuner correct add songbook print version text version save to e-mail
chordsukulelecavacokeyboardtabbassdrumsharmonicsflute Guitar Pro
chords

Is this Love (ver. 2)

  		Is This Love  
============  
  
hereUs the main riff  
  
|-------------------|------------------------|  
|-------------------|--------5---7-5---7-5---|  
|--------2----------|--------6---7-6---7-6---|  
|----2-4---4----2-4-|---4-7----7-----7-----7-|  
|--4----------4-----|-5----------------------|  
|-------------------|------------------------|  
  
|-------------------|--------5-5-5--4-5-4--2-|  
|-------------------|--------5-5-5--5-5-5--2-|  
|--------2----------|--------6-6-6--4-4-4--2-|  
|----2-4---4----2-4-|---4-7--7-7-7---------4-|  
|--4----------4-----|-5----------------------|  
|-------------------|------------------------|  



------------------ 
muita luz!! 


	  

Search Paypal
auto scroll beats size up size down change color hide chords drawings
tab show chords e-chords YouTube Clip e-chords hide all tabs e-chords go to top tab