Bob Esponja

home > Bob Esponja

Bob Esponja Tab

Bob Esponja

Difficulty: ExpertExpert

by leuzemico77

tuner correct add songbook print version text version save to e-mail
chordsukulelecavacokeyboardtabbassdrumsharmonicsflute Guitar Pro
chords

Bob Esponja

  		MODIFICACION A LA TRANSCRIPCION DE 
brismar enriquez bedolla ([email protected]) 
********************************************************************** 

1----7---7---7-6-7-9-7---7---7---7-6-7-9-7-----7----7----7-6-7-9-7-- ---- 
2----9---9---------------9---9-----------------9----9--------------- ---- 
3----9---9---------------9---9-----------------9----9--------------- ---- 
4------------------------------------------------------------------- ---- 
5------7-------------------7----------------------7----------------- ---- 
6-7--------------------7--------------------7----------------------- ---- 


1--12-12---14-16-14-16-14---12-12--12--14-15-15-15-14-12------ 
2------------------------------------------------------------------------ 
3------------------------------------------------------------------------ 



1--7-6-7-9-7----7-6-7-9-7---11/12-------------------------------------- 
2------------------------------------------------------------------------ 
3---------------------------------------------------------------------- 
4------------------------------------------------------------------------ 
5------------------------------------------------------------------------ 
6--------------------------------------0---------------------------------- 
	  

Search Paypal
auto scroll beats size up size down change color hide chords drawings
tab show chords e-chords YouTube Clip e-chords hide all tabs e-chords go to top tab