Bluebottle Kiss

Won't Forget

Bluebottle Kiss

tabs

save to print version add songbook text version e-mail correct tuner
chordsukulelecavacokeyboardtabbassdrumsharmonicaflute Guitar Pro
close

there isn't a video lesson for this song

chords

Won't Forget

	  		Won't Forget - Bluebottle Kiss (from Fear Of Girls) 
------------ 
 
This riff is used throughout the song and in the intro 
 
|-----------------------------|-----------------------------| 
|-----------------------------|-----------------------------| 
|---------2---2---------2---2-|---------2---2---------2---2-| 
|-------4---4---------4---4---|-------4---4---------4---4---| 
|---2-------------2-----------|---2-------------2-----------| 
|-3---3---------3---3---------|-2---2---------2---2---------| 
 
There are some bits with chords like the chorus and the bridge, but they are 
messy and i can't get them. 
corrections,comments, questions, mail [email protected] 
 
------------------------------------------------------------------------------ 
 

		  

See also:

tabs INXS - Dont change tabs Australian Crawl - Things Don't Seem tabs The Beautiful Girls - Freedom (part 2) tabs Hillsong Music Australia - In the Mystery tabs Gerling - The Deer In You tabs Boom Crash Opera - Onion Skin
e-chords

Other versions:

tabs Bluebottle Kiss - Won't Forget
auto scroll beats size up size down change color hide chords drawings
tab show chords e-chords YouTube Clip e-chords hide all tabs e-chords go to top tab

share