Bluebottle Kiss

Return To The City Of Folded Arms

Bluebottle Kiss

tabs

save to print version add songbook text version e-mail correct tuner
chordsukulelecavacokeyboardtabbassdrumsharmonicaflute Guitar Pro
close

there isn't a video lesson for this song

chords

Return To The City Of Folded Arms

	  		Return To The City Of Folded Arms - Bluebottle Kiss 
Album - Patient 
Tabbed by Mitch Brewis (comments, suggestions ) 
Visit my BBK site  
 
 
Standard Tuning EADGBE 
 
Verse 
 
   G           Em 
|--3-3--3-3-3---0-0--0-0-0------ 
|--3-3--3-3-3---0-0--0-0-0------ 
|--0-0--0-2-0---0-0--0-0-0------ 
|--0-0--0-0-0---2-2--0-0-2------ 
|--2-2--0-0-2---2-2--2-2-2------ 
|--3-3--3-3-3---0-0--0-0-0------ 
 
Play along to the song and you can get the rythm of it and where the sus parts happen. 
 
 
Chorus 
 
           Am                        C                      Am 
|----------0---------0-0-------------0---------0-0----------0----- 
|----------1---------0^1-------------1---------0^1----------1----- 
|----------2---------2-2-------------0---------0-0----------2----- 
|----------2---------2-2-------------2---------2-2----------2----- 
|----------0---------0-0-------------3---------3-3----------0----- 
|----------------------------------------------------------------- 
 can't you see            can't you see            your nobody 
 
Same for the chorus, listen to the song for the strum pattern and where the sus' happen. 
 

		  

Full key step upFull key step up
Half key step upHalf key step up
Half key step downHalf key step down
Full key step downFull key step down
hide glossary

See also:

tabs INXS - Dont change tabs Australian Crawl - Things Don't Seem tabs The Beautiful Girls - Freedom (part 2) tabs Hillsong Music Australia - In the Mystery tabs Gerling - The Deer In You tabs Boom Crash Opera - Onion Skin
e-chords

Other versions:

tabs Bluebottle Kiss - Return To The City Of Folded Arms
auto scroll beats size up size down change color hide chords drawings
tab show chords e-chords YouTube Clip e-chords hide all tabs e-chords go to top tab

share