Bluebottle Kiss

One Way Ticket To Antarctica

Bluebottle Kiss

tabs

save to print version add songbook text version e-mail correct tuner
chordsukulelecavacokeyboardtabbassdrumsharmonicaflute Guitar Pro
close

there isn't a video lesson for this song

chords

One Way Ticket To Antarctica

	  		Bluebottle Kiss - One Way Ticket To Antarctica 
>From the album: Higher Up The Firetrails 
Written by Jamie Hutchings 
Transcribed by Stephen Cobb ([email protected]) 
 
Riff 1: 
e-|-1---1-1- 
B-|-3---3-3- 
G-|-2-2----- 
D-|-0------- Plus more randomness Dm style... 
 
Riff 2: 
A-|-5-5-7-8-8--5-7-8-8-5-7-8-7-5-5-5-7-8-1-1-1-1-1h3-3- 
(I can hear other guitary sounding bits underneath so either this is the 
bass or these are the root notes for the played chords.(or both)) 
 
Riff 3: 
Barre Chords: F D A# (slide to) C 
 
Solo: (or similar in F major) 
 
B-|-------------------------------------------------------------^11-^11 
G-|------------------------------5/7-7/10-10-9h10-9/5-5/7-------------- 
D-|-7-8-7-8-7-8-7-8-7-5-5/8-8/10--------------------------10-8--------- 
 
e-|---------------------------------------------------9-9-9-9- 
B-|-------------------^10-(xlots)-^13-^13-^13----------------- 
G-|-------------------------------------------9-9-9-9--------- 
D-|-7h8-8-8-8p7-(x7)------------------------------------------ 
 
I'm not gonna tab the amounts of each note in this bit. If you've heard the 
song you'll know why... 
e-|-12-13-12-13-12-13-15-17-19-20----------------- 
B-|-------------------------------13-11-10-8-(x4)- 
>From there it's a little too messy to tell whats going on... Feedback and 
delay and wah etc etc... 
 
Song Order: 
1, 2, 1, 3, Strike a D5 Barre chord once and let feedback take it's merry 
course, 2, solo, (Drummy bit with repeating F, 2 (w/ ^10's), 1, 3, much 
feedback 
 
 
 

		  

Full key step upFull key step up
Half key step upHalf key step up
Half key step downHalf key step down
Full key step downFull key step down
hide glossary

See also:

tabs INXS - Dont change tabs Australian Crawl - Things Don't Seem tabs The Beautiful Girls - Freedom (part 2) tabs Hillsong Music Australia - In the Mystery tabs Gerling - The Deer In You tabs Boom Crash Opera - Onion Skin
e-chords

Other versions:

tabs Bluebottle Kiss - One Way Ticket To Antarctica
auto scroll beats size up size down change color hide chords drawings
tab show chords e-chords YouTube Clip e-chords hide all tabs e-chords go to top tab

share