Bluebottle Kiss

I'm Wrong and You're Right

Bluebottle Kiss

tabs

save to print version add songbook text version e-mail correct tuner
chordsukulelecavacokeyboardtabbassdrumsharmonicaflute Guitar Pro
close

there isn't a video lesson for this song

chords

I'm Wrong and You're Right

	  		Bluebottle Kiss - I'm Wrong and You're Right 
>From the album: Fear of Girls 
Written by Jamie Hutchings 
Transcribed by Stephen Cobb ([email protected]) 
 
(an attempt at..) That bubbly opening riff: 
Riff 1 
e-|--0--0-0------------5-3-3- 
B-|-3h5-5-5-3----------5-3-3- 
G-|--0--0-0-0----------0-0-0- 
D-|--2--2-2-2-x3 then:-2-2-2- 
A-|--3--3-3-3----------3-3-3- 
E-|-------------------------- 
(Basically fooling with a Cadd9) 
 
"Riff" 2 
e-|-0-------3------------------3----0-0-0---0---0-0- 
B-|--1-------1----0h1---------1-1---0-1-1----1--0-1- 
G-|---0-0-0---0-0----0h2p0-------0--0-0-0-------0-0- 
D-|-----2-------2----------0--------2-2-2-2-----2-2- 
A-|-----3--3----3-----------3-----3-3-3-3-3-----3-3- 
E-|------------------------------------------------- 
(and a whole lot of other random doodlings with C) 
 
Riff 3 
e-|--0-0h3-0-0h3-----------------0-0-0-0-0- 
B-|-0h1-1-0h1-1------------------1-1-3-1-0- 
G-|--0--0--0--0-----after a few--0-0-0-0-0- 
D-|--2--2--2--2-----of those:----2-2-2-2-2- 
A-|--3--3--3--3------------------3-3-3-3-3- 
E-|---------------------------------------- 
 
Riff 4 
G-|-4-4-----5-5- 
D-|-x-x-----x-x- 
A-|-2-2-etc-3-3- 
E-|-0-0-----0-0- 
 
Outro 
(Could be wrong, but it's close... just muck around in C major) 
 
B-|-------------------------5h6-6-8-8-8-8-8b--5h6-6-8-8-8-8p6-6-6-- 
G-|------------4-5-5-5-4-2----------------------------------------- 
D-|--------2------------5------------------------------------------ 
A-|-3h5p3-5-3------------------------------------------------------ 
 
e-|-------------5h7-7h9-9b-------------------------------------------0---- 
B-|-5-5-5h6-6h8------------"8-8-8-6-5"-(in-varying-speeds-until-end)-3-3-0 
G-|------------------------------------------------------------------0---- 
D-|------------------------------------------------------------------2---- 
A-|------------------------------------------------------------------3---- 
 
Song Order: 
1, 2, 3, 1, 2, 3, 4, 2, 1, 2, 3, 4, 2, 1, outro 
 
 
 

		  

Full key step upFull key step up
Half key step upHalf key step up
Half key step downHalf key step down
Full key step downFull key step down
hide glossary

See also:

tabs INXS - Dont change tabs Australian Crawl - Things Don't Seem tabs The Beautiful Girls - Freedom (part 2) tabs Hillsong Music Australia - In the Mystery tabs Gerling - The Deer In You tabs Boom Crash Opera - Onion Skin
e-chords

Other versions:

tabs Bluebottle Kiss - I'm Wrong and You're Right
auto scroll beats size up size down change color hide chords drawings
tab show chords e-chords YouTube Clip e-chords hide all tabs e-chords go to top tab

share