Bluebottle Kiss

Hasten The Blows

Bluebottle Kiss

tabs

save to print version add songbook text version e-mail correct tuner
chordsukulelecavacokeyboardtabbassdrumsharmonicaflute Guitar Pro
close

there isn't a video lesson for this song

chords

Hasten The Blows

	  		standard tuning 
 
 
 main riff 
 --------- 
 
  D                   D                
 
|2-2-2-3-3-0-2-2-|2-2-2-3-3-0-2-2-| 
|3-3-3-3-3-3-3-3-|3-3-3-3-3-3-3-3-| 
|2-2-2-2-2-2-2-2-|2-2-2-2-2-2-2-2-| 
|0-0-0-0-0-0-0-0-|0-0-0-0-0-0-0-0-| 
|----------------|----------------| 
|----------------|----------------| 
 
 
 Gmaj7            Gmaj7 
 
|2-2-2-3-3-0-2-2-|2-2-2-3-3-0-2-2-| 
|3-3-3-3-3-3-3-3-|3-3-3-3-3-3-3-3-| 
|0-0-0-0-0-0-0-0-|0-0-0-0-0-0-0-0-| 
|0-0-0-0-0-0-0-0-|0-0-0-0-0-0-0-0-| 
|X-X-X-X-X-X-X-X-|X-X-X-X-X-X-X-X-| 
|2-2-2-2-2-2-2-2-|2-2-2-2-2-2-2-2-| 
 
 then 
 ---- 
 
 Bm 
 
|2---------------| 
|3---------------| 
|4---------------| 
|4---------------| 
|2---------------| 
|----------------| 
 
 thats it, you'll have to figure out the solo yourself. 
 
 [email protected] 
 

		  

Full key step upFull key step up
Half key step upHalf key step up
Half key step downHalf key step down
Full key step downFull key step down
hide glossary

See also:

tabs INXS - Dont change tabs Australian Crawl - Things Don't Seem tabs The Beautiful Girls - Freedom (part 2) tabs Hillsong Music Australia - In the Mystery tabs Gerling - The Deer In You tabs Boom Crash Opera - Onion Skin
e-chords

Other versions:

tabs Bluebottle Kiss - Hasten The Blows
auto scroll beats size up size down change color hide chords drawings
tab show chords e-chords YouTube Clip e-chords hide all tabs e-chords go to top tab

share