Bluebottle Kiss

Generic Teen

Bluebottle Kiss

tabs

save to print version add songbook text version e-mail correct tuner
chordsukulelecavacokeyboardtabbassdrumsharmonicaflute Guitar Pro
close

there isn't a video lesson for this song

chords

Generic Teen

	  		by Josh Harrex 
 
INTRO 
* hold the initial bend and strum 7(9) 
e--0--0--0---------*--*-*-*-*--------- 
b--1--1--1---5-----5--5-5-5-5--------- 
G--0--0--0---7B9---7--7-7-7-7--------- 
D--2--2--0---------------------------- 
A--3--3--2---------------------------- 
E------------------------------------- 
 
* hold the initial bend and strum 10(12) 
e--------------------*---*--*--*--*------- 
b------------10-----10--10-10-10-10------- 
G------------12B14--12--12-12-12-12------- 
D--3--3--3-------------------------------- 
A--3--3--3-------------------------------- 
E--1--1--0-------------------------------- 
 
repeat the intro four times but the last time only hit the 12B14 
twice, and hold the bend. 
 
VERSE 
ok i'm not going to work out all the tiny slides going on in the  
recorded version, but i'll give something that sounds good that they  
pretty well play live. Chords are softly strummed. Its basically just  
C and F 
 
Sitting behind you last night 
e--0-------------------0----------0----- 
b--1-------------------1----------1----- 
G--0-------------------2----------0h2--- 
D--2-------------------3----------3----- 
A--3------------------------------------ 
E--------------------------------------- 
 
and our conversations died years ago far below 
e--0-----------------------0------------ 
b--1-----------------------1------------ 
G--0-----------------------2------------ 
D--2-----------------------3------------ 
A--3------------------------------------ 
E--------------------------------------- 
 
One year we were on the ferry near the harbour bridge  
e--0-----------------------------0----------------0--0------- 
b--1-----------------------------1----------------3--1------- 
G--0-----------------------------2----------------2--2------- 
D--2-----------------------------3----------------3--3------- 
A--3--------------------------------------------------------- 
E------------------------------------------------------------ 
 
and you asked me where the planes land well  
e--0----0------------------------------------------0------------ 
b--1----1------------------------------------------1------------ 
G--0----0------------------------------------------2------------ 
D--3----2------------------------------------------3------------ 
A-------3------------------------------------------------------- 
E--------------------------------------------------------------- 
 
how was i suppose to know! 
 
CHORUS just repeat the intro 
 
repeat VERSE 
 
BRIDGE  
You where the first 
e------------------------------------------------------ 
b------------------------------------------------------ 
G------------------------------------------------------ 
D---7--7--7--7--7--7--7--7--7--7--7--7--7----7--7\--3-- 
A---7--7--7--7--7--7--7--7--7--7--7--7--7----7--7\--3-- 
E---5--5--5--5--5--5--5--5--5--5--5--5--5----5--0---1-- 
 
you were the worst 
e------------------------------------------------- 
b------------------------------------------------- 
G------------------------------------------------- 
D---3--3--3--3--3--3--3--3--3--3--3--3--3--------- 
A---3--3--3--3--3--3--3--3--3--3--3--3--3--------- 
E---1--1--1--1--1--1--1--1--1--1--1--1--1--------- 
 
It's clear you could see that you had a hold on  
me 
e------------------------------------------------------ 
b------------------------------------------------------ 
G------------------------------------------------------ 
D---7--7--7--7--7--7--7--7--7--7--7--7--7----7--7\--3-- 
A---7--7--7--7--7--7--7--7--7--7--7--7--7----7--7\--3-- 
E---5--5--5--5--5--5--5--5--5--5--5--5--5----5--0---1-- 
 
A hold on me A hold on me A hold A hold 
e--0--0--0-0-0-0---3--3--3-3-3-3---------------------------- 
b--1--1--1-1-1-1---3--3--3-3-3-3----0--0--0-0-0-0--0--0--0-- 
G--0--0--0-0-0-0---0--0--0-0-0-0----0--0--0-0-0-0--0--0--0-- 
D--2--2--2-2-2-2---0--0--0-0-0-0----3--3--3-3-3-3--3--3--3-- repeat 2x 
A--3--3--3-3-3-3---2--2--2-2-2-2----3--3--3-3-3-3--3--3--3-- 
E------------------3--3--3-3-3-3----1--1--1-1-1-1--1--1--1-- 
 
then the next bit is a series of: 
e---0------------------0--------------- 
b---0------------------0--------------- 
G---0------------------0--------------- repeat them as approapriate 
D---3------------------2--------------- 
A---3------------------2--------------- 
E---1------------------0--------------- 
 
Then when the time comes repeat the chorus till the end 
 
 

		  

Full key step upFull key step up
Half key step upHalf key step up
Half key step downHalf key step down
Full key step downFull key step down
hide glossary

See also:

tabs INXS - Dont change tabs Australian Crawl - Things Don't Seem tabs The Beautiful Girls - Freedom (part 2) tabs Hillsong Music Australia - In the Mystery tabs Gerling - The Deer In You tabs Boom Crash Opera - Onion Skin
e-chords

Other versions:

tabs Bluebottle Kiss - Generic Teen
auto scroll beats size up size down change color hide chords drawings
tab show chords e-chords YouTube Clip e-chords hide all tabs e-chords go to top tab

share