Bluebottle Kiss

Beautifully Tragic

Bluebottle Kiss

tabs

save to print version add songbook text version e-mail correct tuner
chordsukulelecavacokeyboardtabbassdrumsharmonicaflute Guitar Pro
close

there isn't a video lesson for this song

chords

Beautifully Tragic

	  		>From the album: Higher Up The Firetrails 
Written by Jamie Hutchings 
Transcribed by Stephen Cobb ([email protected]) 
 
 
Riff 1 
e-|-0--0---0--0--------------- 
B-|-0-3p0-3p0-0-------0-----0- 
G-|-0--0---0--0-------0-----0- 
D-|-2--2---2--2/4---4-----4--- 
A-|-3--3---3--3/5-5--5--5--5-- 
E-|--------------------------- 
			(that last bit is fairly random) 
Riff 2 
e-|-3-3-3-3--3--0-0-0-0- 
B-|-0-0-0-0--0--0-1-0-1- 
G-|-0-0-0-0--0--0-0-0-0- 
D-|-0-0-0-0--0--2-2-2-2- 
A-|-2-2-2-x-0h2-3-3-3-3- 
E-|-3-3-3-2-2h3--------- 
 
Riff 3 
e-|----------------------- 
B-|----------------------- 
G-|-------0-----------0--- 
D-|---2-------2-----4---4- 
A-|-3---3---3---3/5------- 
E-|----------------------- 
 
Riff 4 
e-|-0--0---0------0---0---5-0--5-5p3h5-3- 
B-|-0-3p0-3p0-----5-3h5p3-3-5--3---3---3- 
G-|-0--0---0------0---0---0-0--0---0---0- 
D-|-2--2---2--2/4-4---4---4-4--4---4---4- 
A-|-3--3---3--3/5-5---5---5-5--5---5---5- 
E-|-------------------------------------- Plus more of the same... 
 
Song order: 
1, 2, 3, 4, 1, 2, 3 
 
 
 

		  

See also:

tabs INXS - Dont change tabs Australian Crawl - Things Don't Seem tabs The Beautiful Girls - Freedom (part 2) tabs Hillsong Music Australia - In the Mystery tabs Gerling - The Deer In You tabs Boom Crash Opera - Onion Skin
e-chords

Other versions:

tabs Bluebottle Kiss - Beautifully Tragic
auto scroll beats size up size down change color hide chords drawings
tab show chords e-chords YouTube Clip e-chords hide all tabs e-chords go to top tab

share