Blossoms

At Most A Kiss

Blossoms

tabs

by  DEIVCAVALCANTI

save to print version add songbook text version e-mail correct tuner
chordsukulelecavacokeyboardtabbassdrumsharmonicaflute Guitar Pro
close

there isn't a video lesson for this song

chords

At Most A Kiss

	  		Intro 

G|-----------------------------------------| 
D|-7-7-7-7--3-3-3-3-7-7-7-7-7-3-3-3-3-5-3--| 
A|-----------------------------------------| 
E|5-5-5-5--1-1-1-1-5-5-5-5-5-1-1-1-1-3-1---| 

G|-------------------------------------------------------------------------------------| 
D|-7-7-7-7-----------------------------------------------------------------------------|x 
A|-------------------------------------------------------------------------------------| 
E|5-5-5-5------------------------------------------------------------------------------| 


Verse 

G|---------------------------------------------| 
D|---------------------------------------------| 
A|10h12121210h121210h121210h1212 1010 1010 66--| 
E|---------------------------------------------| 

G|--------------------------------1212 1212------| 
D|------------------------------------------ 15--| 
A|10h12121210h121210h121210h1212 ----------------| 
E|-----------------------------------------------| 


Chorus 

G|----------------------------------------------------| 
D|-7-7-7-7--10-10-10-14-14-14-14--15-15-15-15--18-18--| 
A|----------------------------------------------------| 
E|5-5-5-5--8-8-8-8-12-12-12-12---13-13-13-13-16-16----| 


G|-------------------------------------------------------------------------------------| 
D|--14--14--14--14---------------------------------------------------------------------| 
A|-------------------------------------------------------------------------------------| 
E|12--12--12--12-----------------------------------------------------------------------| 


Verse 

G|---------------------------------------------| 
D|---------------------------------------------| 
A|10h12121210h121210h121210h1212-1010-1010-66--| 
E|---------------------------------------------| 

G|--------------------------------1212 1212------| 
D|------------------------------------------ 15--| 
A|10h12121210h121210h121210h1212 ----------------| 
E|-----------------------------------------------| 

Bass Solo i am strugilling to work this out but here is arough idea 

G|--------5----------------5--------5-------141214--| 
D|---5h7p5--7p5h7----5h7p5-----5h7p5-7p5h7----------| 
A|00--------------00--------00------------00--------| 
E|--------------------------------------------------| 

  Bridge and solo Add fills if you can figrue out 
G|--14-14-14-14--------10-10-10-10-8-8-8-8--| 
D|------------------------------------------| 
A|12-12-12-12---------8--8--8--8--6-6-6-6---| 
E|------------------------------------------| 



************************************ 

| h  Hammer-on 
| p  Pull-off 
  

************************************ 
		  

Full key step upFull key step up
Half key step upHalf key step up
Half key step downHalf key step down
Full key step downFull key step down
hide glossary

See also:

tabs Ira! - Poço de Sensibilidade (Solo - Acustico Mtv) tabs Deep Purple - Smoke On The Water tabs Deep Purple - Smoke on the water (intro) tabs Ira! - Eu Quero Sempre Mais (Com Pitty, intro) tabs Deep Purple - Smoke on the Water (ver. 2) tabs Deep Purple - Knocking At Your Back Door
e-chords

Other versions:

tabs Blossoms - At Most A Kiss
auto scroll beats size up size down change color hide chords drawings
tab show chords e-chords YouTube Clip e-chords hide all tabs e-chords go to top tab

share