Bloodsoaked

Religious Apocalypse

Bloodsoaked

tabs

by  EDSOOLIVEIRA

save to print version add songbook text version e-mail correct tuner
chordsukulelecavacokeyboardtabbassdrumsharmonicaflute Guitar Pro
close

there isn't a video lesson for this song

chords

Religious Apocalypse

	  		 


Tuning: D-G-C-F-A-D 


(First Riff Played 8 Times) 
D|-----------| 
A|-----------| 
F|-----------| 
C|-4-3-------| 
G|-3-2-------| 
D|-2-1-------| 


(Second Riff Played 8 Times) 
D|------------------| 
A|------------------| 
F|------------------| 
C|-4-3-3-3-3-3-3-3--| 
G|-3-2-2-2-2-2-2-2--| 
D|-2-1-1-1-1-1-1-1--| 


(Right after the Second Riff finishes the break is played like this) 
D|------------------------| 
A|------------------------| 
F|-8-7---4-3--------------| 
C|-------------4-3--------| 
G|-6-5---2-1--------------| 
D|-----0-----0-2-1--------| 


(Third Riff Played 3 Times) 
D|------------------------------------------------------------------| 
A|------------------------------------------------------------------| 
F|-------------------------------8-7---4-3--------------------------| 
C|---4-3-----------7----6--------------------4-3--------4-4-4-4-4-4-| 
G|-------------------------------6-5---2-1--------------3-3-3-3-3-3-| 
D|-0-2-1--------0--5----4------------0-----0-2-1--------2-2-2-2-2-2-| 


(The last time the third riff is played it goes directly into the Fourth Riff 
like this below) 
D|---------------------------------------------------------------------------------| 
A|---------------------------------------------------------------------------------| 
F|-8-7---4-3-----------------------------------------------------------------------| 
C|-------------4--------------------------------------------------3-3-7----3-3-4---| 
G|-6-5---2-1------------------------------------------------------2-2-6----2-2-3---| 
D|-----0-----0-2-111111112222222211111111444444441111111122222222-1-1-5----1-1-2---| 


That's pretty much the entire song.  After the fourth riff (fast double bass part) 
it goes back into the first, second and third riffs again. 

All the riffs to the song are listed here, just listen 
to the song and you should be playing it in no time. 



| /  slide up 
| \  slide down 
| h  hammer-on 
| p  pull-off 
| ~  vibrato 
| +  harmonic 
| x  Mute note 
=============================================================== 
		  

Full key step upFull key step up
Half key step upHalf key step up
Half key step downHalf key step down
Full key step downFull key step down
hide glossary

See also:

tabs Metallica - No Remorse tabs Metallica - Orion tabs Metallica - Enter Sandman tabs Metallica - Master of Puppets (Main Riffs) tabs Metallica - Ecstasy of gold tabs Metallica - The Thing That Should Not Be
e-chords

Other versions:

tabs Bloodsoaked - Religious Apocalypse
auto scroll beats size up size down change color hide chords drawings
tab show chords e-chords YouTube Clip e-chords hide all tabs e-chords go to top tab

share