Blood Red Shoes

Je Me Perds

Blood Red Shoes

tabs nolevel nolevel

by  TERCMORAES

save to print version add songbook text version e-mail correct tuner
chordsukulelecavacokeyboardtabbassdrumsharmonicaflute Guitar Pro
close

there isn't a video lesson for this song

chords

Je Me Perds

	  		Intro 
                                                            X3 
 
||-------------------------------|---------------------------| 
||o------------------------------|--------------------------o| 
||-------------------------------|---------------------------| 
||--10--10--10--10--10-12--12--7-|-7--7--7--7--7--7--7--7-7--| 
||o-8---8---8---8---8--10--10--5-|-5--5--5--5--5--5--5--5-5-o| 
||-------------------------------|---------------------------| 
 

 
|------------------------------|-------------------------|| 
|------------------------------|-------------------------|| 
|------------------------------|-------------------------|| 
|-10--10--10--10--10-12--12--7-|-7--7--7--7--7-----------|| 
|-8---8---8---8---8--10--10--5-|-5--5--5--5--5-----------|| 
|------------------------------|-------------------------|| 
 

Verse 
                                                            X4 
 
||-------------------------------|---------------------------| 
||o------------------------------|--------------------------o| 
||-------------------------------|---------------------------| 
||--10--10--10--10--10-12--12--7-|-7--7--7--7--7--7--7--7-7--| 
||o-8---8---8---8---8--10--10--5-|-5--5--5--5--5--5--5--5-5-o| 
||-------------------------------|---------------------------| 
 

Chorus 
 
||------------------------|--------------------------| 
||------------------------|--------------------------| 
||------------------------|--------------------------| 
||------------------------|--------------------------| 
||-5--5--5--5--5--7--7--7-|-3--3--3--3--/10----\8----| 
||-3--3--3--3--3--5--5--5-|-1--1--1--1---------------| 
 


 
|------------------------|----------------------| 
|------------------------|----------------------| 
|------------------------|----------------------| 
|------------------------|----------------------| 
|-5--5--5--5--5--7--7--7-|-3--3--3--3--0--------| 
|-3--3--3--3--3--5--5--5-|-1--1--1--1--0--------| 
 

 
|------------------------|--------------------------| 
|------------------------|--------------------------| 
|------------------------|--------------------------| 
|------------------------|--------------------------| 
|-5--5--5--5--5--7--7--7-|-3--3--3--3--/10----\8----| 
|-3--3--3--3--3--5--5--5-|-1--1--1--1---------------| 
 

 
|------------------------|-------------------------|| 
|------------------------|-------------------------|| 
|------------------------|-------------------------|| 
|------------------------|-------------------------|| 
|-5--5--5--5--5--7--7--7-|-3--3--3--3--2--2--2--2--|| 
|-3--3--3--3--3--5--5--5-|-1--1--1--1--0--0--0--0--|| 
 

Post-Chorus 
 
||------------------|--------------------|------------------|--------------------| 
||------------------|--------------------|------------------|--------------------| 
||------------------|---^----------------|------------------|--------------------| 
||------------------|-10b----------------|------------------|---^----------------| 
||-0----------------|--------------------|-0----------------|-10b----------------| 
||-0----------------|--------------------|-0----------------|--------------------| 
 

 
|------------------|--------------------|------------------|----------------------|| 
|------------------|--------------------|------------------|----------------------|| 
|------------------|---^----------------|------------------|----------------------|| 
|------------------|-10b----------------|------------------|---^------------------|| 
|-0----------------|--------------------|-0----------------|-10b--------10--------|| 
|-0----------------|--------------------|-0----------------|----------------------|| 
 

Repeat Intro 
Repeat Verse 
Repeat Chorus 
		  

See also:

tabs Bush - Bonedriven tabs Ben Howard - Oats In The Water tabs Oasis - Wonderwall (ver. 2) tabs Arctic Monkeys - Fluorescent Adolescent tabs Oasis - Champagne Supernova (ver. 2) tabs Oasis - Hello
e-chords

Other versions:

tabs Blood Red Shoes - Je Me Perds
auto scroll beats size up size down change color hide chords drawings
tab show chords e-chords YouTube Clip e-chords hide all tabs e-chords go to top tab

share with facebook