Blood Red Shoes

Everything All At Once

Blood Red Shoes

tabs nolevel nolevel

by  EDSOOLIVEIRA

save to print version add songbook text version e-mail correct tuner
chordsukulelecavacokeyboardtabbassdrumsharmonicaflute Guitar Pro
close

there isn't a video lesson for this song

chords

Everything All At Once

	  		

Tuning:Standard 
This is what Laura-Mary Carter plays live. There is another guitar that can be heard on the album 
version during the Chorus but i couldn't quite make it out. 

(Intro/ Main Riff) 
e|---------------------------------------------------------------------------------| 
B|---------------------------------------------------------------------------------| 
G|---------------------------------------------------------------------------------| 
D|---------------------------------------------------------------------------------| 
A|-12--------------------------------------12--------------------------------------| 
E|----10-12--12-10-12--12-10-12--12-10-12-----10-12--12-10-12--12-10-12--12-10-12--| 

(Verse) 
e|-----------------------------------------| 
B|-----------------------------------------| 
G|-----------------------------------------| 
D|-----------------------------------------|x7 
A|-12--------------------------------------| 
E|----10-12--12-10-12--12-10-12--12-10-12--| 

e|-----------------------------------------------------------| 
B|-----------------------------------------------------------| 
G|-----------------------------------------------------------| 
D|-----------------------------------------------------------| 
A|-12--------------------------------------------------------| 
E|----10-12--12-10-12--12-10-12--12-10-12--7/-3~--/18~-17~---| 

e|-----------------------------------------| 
B|-----------------------------------------| 
G|-----------------------------------------| 
D|-----------------------------------------|x3 
A|-12--------------------------------------| 
E|----10-12--12-10-12--12-10-12--12-10-12--| 

e|-----------------------------------------------------------| 
B|-----------------------------------------------------------| 
G|-----------------------------------------------------------| 
D|-----------------------------------------------------------| 
A|-12--------------------------------------------------------| 
E|----10-12--12-10-12--12-10-12--12-10-12--7/-3~--/18~-17~---| 

(Chorus)(Listen to the song for timing) 
e|------------------------------------------------------------------| 
B|------------------------------------------------------------------| 
G|------------------------------------------------------------------| 
D|--14-------7-------14-------7-------14------7-----14-----7--------| 
A|--14-------7-------14-------7-------14------7-----14-----7--------| 
E|--12-------5-------12-------5-------12------5-----12-----5--------| 

(Fill) 
e|-----------------------------------------------------| 
B|-----------------------------------------------------| 
G|-----------------------------------------------------| 
D|-----------------------------------------------------| 
A|-----------------------------------------------------| 
E|--3~---/18~--17~---12--12-10-12--12-10-12--12-10-12--| 

(Verse) 
e|-----------------------------------------| 
B|-----------------------------------------| 
G|-----------------------------------------| 
D|-----------------------------------------|x5 
A|-12--------------------------------------| 
E|----10-12--12-10-12--12-10-12--12-10-12--| 

e|---------------------------------------------------| 
B|---------------------------------------------------| 
G|---------------------------------------------------| 
D|---------------------------------------------------| 
A|-12------------------------------------------------| 
E|----10-12--12-10-12--12-10-12--12-10-12--7/5~--5b--| 

(Chorus)(Listen to the song for timing) 
e|------------------------------------------------------------------| 
B|------------------------------------------------------------------| 
G|------------------------------------------------------------------| 
D|--14-------7-------14-------7-------14------7-----14-----7--------| 
A|--14-------7-------14-------7-------14------7-----14-----7--------| 
E|--12-------5-------12-------5-------12------5-----12-----5--------| 

(Fill) 
e|----------------------------------------| 
B|----------------------------------------| 
G|----------------------------------------| 
D|----------------------------------------| 
A|----------------------------------------| 
E|-3~---12--12-10-12--12-10-12--12-10-12--| 

(Outro) 
e|-----------------------------------------| 
B|-----------------------------------------| 
G|-----------------------------------------| 
D|-----------------------------------------|x5 
A|-12--------------------------------------| 
E|----10-12--12-10-12--12-10-12--12-10-12--| 

e|-------------| 
B|-------------| 
G|-------------| 
D|-------------| 
A|-12----------| 
E|----10-12/---| 


************************************ 

| /   slide up 
| \   slide down 
| h   hammer-on 
| p   pull-off 
| ~   vibrato 
| +   harmonic 
| x   Mute note 
| b   Bend 
| pb  Pre-bend 
| br  Bend release 
| pbr Pre-bend release 
| brb Bend release bend 

************************************ 
		  

See also:

tabs Bush - Bonedriven tabs Ben Howard - Oats In The Water tabs Oasis - Wonderwall (ver. 2) tabs Arctic Monkeys - Fluorescent Adolescent tabs Oasis - Champagne Supernova (ver. 2) tabs Oasis - Hello
e-chords

Other versions:

tabs Blood Red Shoes - Everything All At Once
auto scroll beats size up size down change color hide chords drawings
tab show chords e-chords YouTube Clip e-chords hide all tabs e-chords go to top tab

share with facebook