Blood Red Shoes

Black Distractions

Blood Red Shoes

tabs

by  LUCICAMARGO

save to print version add songbook text version e-mail correct tuner
chordsukulelecavacokeyboardtabbassdrumsharmonicaflute Guitar Pro
close

there isn't a video lesson for this song

chords

Black Distractions

	  		
intro: 
e|------| 
B|------| 
G|------| 
D|-2-2--| 
A|-2-2--| 
E|-0-0--| 

e|--------------------|---------------------| 
B|--------------------|---------------------| 
G|--------------------|---------------------| 
D|---------------8-8--|----------------2-2--|x3 
A|---------------8-8--|----------------2-2--| 
E|-0h3h5--0h3h5--6-6--|--6p5-3--5p3-0--0-0--| 

e|--------------------|---------------------| 
B|--------------------|---------------------| 
G|--------------------|---------------------| 
D|---------------8-8--|---------------------| 
A|---------------8-8--|---------------------| 
E|-0h3h5--0h3h5--6-6--|--6p5-3--5p3-0-------| 

chorus: part1 - x16/x16/x16/x16 
e|--------------------------| 
B|--------------------------| 
G|--------------------------| 
D|-5--7--13--12-------------| 
A|-5--7--13--12-------------| 
E|-3--5--11--10-------------| 


chorus: part2 - x16/x16/x2/x2 
e|-------||-----------------| 
B|-------||-----------------| 
G|-------||-----------------| 
D|-5--7--||-13-13----12-12--| 
A|-5--7--||-13-13----12-12--| 
E|-3--5--||-11-11----10-10--| 


bridge to verse: 
e|--------------------------| 
B|--------------------------| 
G|--------------------------| 
D|---------------2-2--------| 
A|---------------2-2--------| 
E|-6p5-3--5p3-0--0-0--------| 


verse: 
e|--------------------|---------------------| 
B|--------------------|---------------------| 
G|--------------------|---------------------| 
D|---------------8-8--|----------------2-2--|x3 
A|---------------8-8--|----------------2-2--| 
E|-0h3h5--0h3h5--6-6--|--6p5-3--5p3-0--0-0--| 

e|--------------------|---------------------| 
B|--------------------|---------------------| 
G|--------------------|---------------------| 
D|---------------8-8--|---------------------| 
A|---------------8-8--|---------7_----------| 
E|-0h3h5--0h3h5--6-6--|--6p5-3--------------| 


chorus: part1 - x16/x16/x16/x16 
e|--------------------------| 
B|--------------------------| 
G|--------------------------| 
D|-5--7--13--12-------------| 
A|-5--7--13--12-------------| 
E|-3--5--11--10-------------| 


chorus: part2 - x16/x16/x02/x02 
e|-------||-----------------| 
B|-------||-----------------| 
G|-------||-----------------| 
D|-5--7--||-13-13----12-12--| 
A|-5--7--||-13-13----12-12--| 
E|-3--5--||-11-11----10-10--| 


bridge to solo: 
e|--------------------------| 
B|--------------------------| 
G|--------------------------| 
D|---------------2-2--------| 
A|---------------2-2--------| 
E|-6p5-3--5p3-0--0-0--------| 


solo: 
e|----------------------------------------------------------------------------------| 
B|----------------------------------------20----------------6-8_------8-5-8-5-------| 
G|-------------------------------------------18-19-15~------------------------7-----| 
D|------8-8------2-2-------8-8-------2-2---------------8-8-------2-2------------8_--| 
A|--7b--8-8--3b--2-2--12b--8-8--7b5--2-2---------------8-8-------2-2------------8-8-| 
E|------6-6------0-0-------6-6-------0-0---------------6-6-------0-0------------6-6-| 


chorus: part 1 - x01/x01/x16/x16 
e|--------------------------| 
B|--------------------------| 
G|--------------------------| 
D|-5_--7_--|-13--12---------| 
A|-5_--7_--|-13--12---------| 
E|-3_--5_--|-11--10---------| 


chorus: part 2 - x16/x16/x16/x16 
e|--------------------------| 
B|--------------------------| 
G|--------------------------| 
D|-5--7--13--12-------------|x2 
A|-5--7--13--12-------------| 
E|-3--5--11--10-------------| 


chorus: part 3 - x16/x16/x02/x02 
e|-------||-----------------| 
B|-------||-----------------| 
G|-------||-----------------| 
D|-5--7--||-13-13----12-12--| 
A|-5--7--||-13-13----12-12--| 
E|-3--5--||-11-11----10-10--| 


end: 
e|--------------------------| 
B|--------------------------| 
G|--------------------------| 
D|---------------2-2--------| 
A|---------------2-2--------| 
E|-6p5-3--5p3-0--0-0--------| 
 
		  

See also:

tabs Fuel - Fall On Me tabs Focus - Hocus Pocus (ver. 2) tabs Bush - Greedy Fly tabs Oasis - I will Believe tabs Tracy Chapman - Talkin? Bout A Revolution tabs Bush - Bonedriven
e-chords

Other versions:

tabs Blood Red Shoes - Black Distractions
auto scroll beats size up size down change color hide chords drawings
tab show chords e-chords YouTube Clip e-chords hide all tabs e-chords go to top tab

share with facebook