Blink 182

home > Blink 182

wings of a butterfly Tab

Blink 182

Difficulty: nolevelnolevel

by europeu

tuner correct add songbook print version text version save to e-mail
chordsukulelecavacokeyboardtabbassdrumsharmonicsflute Guitar Pro
chords

wings of a butterfly

  		INTRO 
e|---------------------------------------------------------------------------| 
B|---6----6---6-6h4p64----4---4---4----4h2p42----2---2--1------------------| 
G|-----3----3----------------1----1---1--------------------------------------| 
D|----------------------------------------------2-----4----------------------| 
A|---------------------------------------------------------------------------| 
D|---------------------------------------------------------------------------| 
 
VERSE 
e|---------------------------------------------------------------|------------| 
B|---------------------------------------------------------------|------------| 
G|---------------------------------------------------------------|------------| 
D|----6-8-8--8-8--6-6--6-6--4-4--4-6--8-8--8-8--6-6--6-6--4-4--4-|-6~~~-------| 
A|----6-8-8--8-8--6-6--6-6--4-4--4-6--8-8--8-8--6-6--6-6--4-4--4-|-6~~~-------| 
D|----6-8-8--8-8--6-6--6-6--4-4--4-6--8-8--8-8--6-6--6-6--4-4--4-|-6~~~-------| 
    p.m ----------------------------------------------------------------------> 
 
Chorus 
e|---------------------------------------------------------------------------| 
B|---------------------------------------------------------------------------| 
G|---------------------------------------------------------------------------| 
D|------8888-00-6666-65444-6-------------------------------------------------| 
A|------8888-00-6666-65444-6-------------------------------------------------| 
D|------8888-00-6666-65444-6-------------------------------------------------| 
 
 
InTeRlUdE 
e|---------------------------------------------------------------------------| 
B|---------------------------------------------------------------------------| 
G|---------------------------------------------------------------------------| 
D|---------------------------------3--6--5--3--1-1-1-3--6--1~~~--------------| 
A|---------------------------------3--6--5--3--1-0-1-3--6--1~~~--------------| 
D|---3~6-5-3--1-1-0-1--3~~-6-1~~---3--6--5--3--1-1-1-3--6--1~~~--------------| 
 
PLAY: 
Intro 
Verse 
Chorus 
Intro 
Verse 
Chorus 
intro 
interlude 
Chorus 
intro 
 
KEY 
~ vibrato 
/  slide up 
  slide down 
h  hammer-on 
p  pull-off 
 
LYRICS: 
Heaven ablaze in our eyes 
We're standing still in time 
The blood on our hands is the wine 
We offer as sacrifice 
 
{Chorus} 
Come on, and show them your love 
Rip out the wings of a butterfly 
For your soul, my love 
Rip out the wings of a butterfly 
For your soul 
 
This endless mercy mile 
We're crawling side by side 
With hell freezing over in our eyes 
Gods kneel before our crime 
 
{Chorus} 
Come on lets show, them your love 
Rip out the wings of a butterfly 
 
For your soul, my love 
Rip out the wings of a butterfly 
For your soul 
(Rip out the wings of a butterfly) 
Don?t let go 
(Rip out the wings of a butterfly) 
For your soul 
 
{Chorus} 
Come on, and show them your love 
Rip out the wings of a butterfly 
For your soul, my love 
Rip out the wings of a butterfly 
For your soul 
(Rip out the wings of a butterfly) 
Don?t let go 
(Rip out the wings of a butterfly) {x2} 
 
For your soul 
 
 

	  

Search Paypal
auto scroll beats size up size down change color hide chords drawings
tab show chords e-chords YouTube Clip e-chords hide all tabs e-chords go to top tab