Blink 182

home > Blink 182

When I Was Young Tab

Blink 182

Difficulty: nolevelnolevel

by ang%2Dletra

tuner correct add songbook print version text version save to e-mail
chordsukulelecavacokeyboardtabbassdrumsharmonicsflute Guitar Pro
chords

When I Was Young

  		

 Verse (Starting at 0:42) 
e|--------------------------------| 
B|--------------------------------| 
G|8/4--4-4----8/4--4-4----4/6--6-6| 
D|x/x--x-x----x/x--x-x ---x/x--x-x|X3 
A|6/2--2-2----6/2--2-2----2/4--4-4| 
E|--------------------------------| 

 Chorus 
e|---------------------------------------------------------------| 
B|---------------------------------------------------------------| 
G|4-4-4-------6-6-6-6-6-6-6-6-6-6-------8-8-8--------------------| 
D|4-4-4-4-4-4-6-6-6-6-6-6-6-6-6-6-6-6-6-8-8-8-2-2-2-2-2-2-2-2-2-2|X2 
A|2-2-2-4-4-4-4-4-4-4-4-4-4-4-4-4-6-6-6-6-6-6-2-2-2-2-2-2-2-2-2-2| 
E|------2-2-2---------------------4-4-4-------0-0-0-0-0-0-0-0-0-0| 

 Verse 
e|--------------------------------| 
B|--------------------------------| 
G|8/4--4-4----8/4--4-4----4/6--6-6| 
D|x/x--x-x----x/x--x-x ---x/x--x-x|X3 
A|6/2--2-2----6/2--2-2----2/4--4-4| 
E|--------------------------------| 

 Chorus 
e|---------------------------------------------------------------| 
B|---------------------------------------------------------------| 
G|4-4-4-------6-6-6-6-6-6-6-6-6-6-------8-8-8--------------------| 
D|4-4-4-4-4-4-6-6-6-6-6-6-6-6-6-6-6-6-6-8-8-8-2-2-2-2-2-2-2-2-2-2|X4 
A|2-2-2-4-4-4-4-4-4-4-4-4-4-4-4-4-6-6-6-6-6-6-2-2-2-2-2-2-2-2-2-2| 
E|------2-2-2---------------------4-4-4-------0-0-0-0-0-0-0-0-0-0| 

 Bridge 
e|-----------------------------------------------------------------| 
B|-----------------------------------------------------------------| 
G|8--------9--------4x--------6--------8--------9--------4--------6| 
D|8--------9--------4x--------6--------8--------9--------4--------6| 
A|6--------7--------2x--------4--------6--------7--------2--------4| 
E|-----------------------------------------------------------------| 

Chorus 
e|---------------------------------------------------------------| 
B|---------------------------------------------------------------| 
G|4-4-4-------6-6-6-6-6-6-6-6-6-6-------8-8-8--------------------| 
D|4-4-4-4-4-4-6-6-6-6-6-6-6-6-6-6-6-6-6-8-8-8-2-2-2-2-2-2-2-2-2-2|X4 
A|2-2-2-4-4-4-4-4-4-4-4-4-4-4-4-4-6-6-6-6-6-6-2-2-2-2-2-2-2-2-2-2| 
E|------2-2-2---------------------4-4-4-------0-0-0-0-0-0-0-0-0-0| 
 
	  

Search Paypal
auto scroll beats size up size down change color hide chords drawings
tab show chords e-chords YouTube Clip e-chords hide all tabs e-chords go to top tab