Blink 182

home > Blink 182

What went wrong (ver. 2) Tab

Blink 182

Difficulty: nolevelnolevel

by fboy

tuner correct add songbook print version text version save to e-mail
chordsukulelecavacokeyboardtabbassdrumsharmonicsflute Guitar Pro
chords

What went wrong (ver. 2)

  		intro : 

e|---------------------------|----------- 
B|---------------------------|----------- 
G|---------------------------|--666---666 
D|--9-7----9-7----9-7----9-7-|7-777-7-777  ( 2X ) 
A|-7------7------7------7----|7-4/5-7-4/5 
E|---------------------------|5-5xx-5-5xx 

Verso : 
e|--------- 
B|--------- 
G|-----9-7- 
D|-7-4-9-7- ( 2x ) 
A|-7-4-7-5- 
E|-5-2----- 

e|---------------------------|----------- 
B|---------------------------|----------- 
G|---------------------------|--666---666 
D|--9-7----9-7----9-7----9-7-|7-777-7-777  ( 2x ) 
A|-7------7------7------7----|7-4/5-7-4/5 
E|---------------------------|5-5xx-5-5xx 

e|--------- 
B|--------- 
G|-----9-7- 
D|-7-4-9-7- ( 2x ) 
A|-7-4-7-5- 
E|-5-2----- 

Chorus : 

e|--------- 
B|--------- 
G|-------7- 
D|-7-6-4-7- ( 2x ) 
A|-7-6-4-5- 
E|-5-4-2--- 

e|---------------------------|----------- 
B|---------------------------|----------- 
G|---------------------------|--666---666 
D|--9-7----9-7----9-7----9-7-|7-777-7-777  ( 2X ) 
A|-7------7------7------7----|7-4/5-7-4/5 
E|---------------------------|5-5xx-5-5xx 

e|--------- 
B|--------- 
G|-----9-7- 
D|-7-4-9-7- ( 2x ) 
A|-7-4-7-5- 
E|-5-2----- 

e|--------- 
B|--------- 
G|-------7- 
D|-7-6-4-7- ( 2x ) 
A|-7-6-4-5- 
E|-5-4-2--- 

SOLO ( q o tom faz ao vivo ) : 

e|------------------------------------------------------------------- 
B|------------------------------------------------------------------- 
G|-777---9---6---9---6---9---6---9---6---9---6---9---6---6---6---666- 
D|-777--7-7-7-7-7-7-7-7-7-7-7-7-7-7-7-7-7-7-7-7-7-7-7-7-7---7---777-- 
A|-555-0---0---0---0---5---5---5---5---0---0-----------5---5---555--- 
E|---------------------------------------------7---7----------------- 

interlude ( msmo jeito q o tom toka ) 

e|-------------------------------- 
B|-----6------------6------------- 
G|-----7-7-6-6------7-7-6-6-6-9-7- 
D|-444-7-4-7-7--444-7-4-7-7-7-9-7- 
A|-444-5-5-5----444-5-5-5---5-7-5- 
E|-222----------222--------------- 

e|------------- 
B|------------- 
G|-----7-----7- 
D|-7-4-7-7-4-7- ( 4x ) 
A|-7-4-5-7-4-5- 
E|-5-2---5-2--- 

[email protected] 

	  

Search Paypal
auto scroll beats size up size down change color hide chords drawings
tab show chords e-chords YouTube Clip e-chords hide all tabs e-chords go to top tab