Blink 182

home > Blink 182

Wendy clear 6 Tab

Blink 182

Difficulty: nolevelnolevel

by carlos01

tuner correct add songbook print version text version save to e-mail
chordsukulelecavacokeyboardtabbassdrumsharmonicsflute Guitar Pro
chords

Wendy clear 6

  		 
 
 
       intro 
   
   ------------------------------------------ 
   ---3---3---------------------------------- 
   ----------0---3 2------------------------- 
   -----0------------------------------------  x4 
   ------------------------------------------ 
   ------------------------------------------ 
 
        verse 
   ------------1---------------------3--------              
   --3---------3-x9--------3---------5--x9---- 
   --5--x9-----3-----------5----x9---5-------- 
   --5---------------------5------------------ 
   ------------------------------------------- 
   ------------------------------------------- 
    
 
 
    ------------------------------------------- 
    ---3------3-------------------------------- 
    --------------0---3--2--------------------- 
    -------0-----------------------------------   x4 
    ------------------------------------------- 
    ------------------------------------------- 
 
 
          just repeat this a couple times .blink 182 rox!!!!!!!!!!!!!!!!!!!!!!!!!!!!!!!!!!!!!!!!!!!!!!!!!!!!!!!!!!!!!!!!!!!!!!!!!!!!!!!!!!!!!!!!!!!!!!!!!!!!!!!!!!!!!!!!!! 

	  

Search Paypal
auto scroll beats size up size down change color hide chords drawings
tab show chords e-chords YouTube Clip e-chords hide all tabs e-chords go to top tab