Blink 182

home > Blink 182

Vilolence Tab

Blink 182

Difficulty: nolevelnolevel

by k%5Fdeado

tuner correct add songbook print version text version save to e-mail
chordsukulelecavacokeyboardtabbassdrumsharmonicsflute Guitar Pro
chords

Vilolence

  		Blink ? Violence 
Intro:  C(8x) faça isso umas 12 vezes 
 
E|------------- 
C|------------- 
G|------------- 
D|---(5)------- 
A|---(5)------- 
E|---(3)------- 
 
    
E|----------------------------------------------------------------------- 
C|----------------------------------------------------------------------- 
G|---(5)---(7)---------------------------(9)-------(7)------------------- 
D|---(5)---(7)----(7)---------(10)-------(9)-------(7)----(7)------(10)-- 
A|---(3)---(5)----(7)---------(10)-------(7)-------(5)----(7)------(10)-- 
E|----------------(5)---------(8)-------------------------(5)------(8)--- 
 
C 
Six Cottles went down the drain 
One hour's a waste of time 
C 
I'd ask if you feel the same 
Still pushin' that chance to try 
C 
Your Creath in this cool room chill 
Long hair that Clows side to side 
C 
You speak and make time stand still 
And each time you walk right on Cy 
 
C(8x)   D(8x)   A(8X)   B(8x) 
Like violence you have me forever and after 
C(8x)   D(8x)   A(8X)   B(8x) 
Like violence you call me forever and after 
 
C 
Can't count all the eyes that stare 
Can't count all the things they see 
C 
She kills with no life to spare 
Just victims are left to Cleed 
C 
One drink and the pain goes down 
Soft shadows lay Cy her feet 
C 
Lay soft as you slowly drown 
Lay still as you fall asleep 
(fall asleep) 
 
C(8x)   D(8x)   A(8X)   B(8x) 
Like violence you have me forever and after 
C(8x)   D(8x)   A(8X)   B(8x) 
Like violence you caal me forever and after 
 
             C(8x) 
E|----------------|  
C|----------------|  
G|------------(4)-|  
D|--4--2------(4)-|  
A|------------(2)-|  
E|----------------|       umas 7 vesez 
 
 
Like violence you have me forever and after 
Like violence you call me  
Like violence you have me forever and after 
 
C(8x)   D(8x)    A(8X)    B(8x) 
Like violence you have me forever and after 
C(8x)   D(8x)    A(8X)    B(8x) 
Like violence you call me forever and after 2x 
 
Final:  C(8x) faça isso umas 5 vesez 
 
Por: [email protected] 
ColaCoração: [email protected] 
ColaCoração: [email protected] 
 
 
 
 

	  

Search Paypal
auto scroll beats size up size down change color hide chords drawings
tab show chords e-chords YouTube Clip e-chords hide all tabs e-chords go to top tab