Blink 182

home > Blink 182

The Mother's day Song Tab

Blink 182

Difficulty: nolevelnolevel

tuner correct add songbook print version text version save to e-mail
chordsukulelecavacokeyboardtabbassdrumsharmonicsflute Guitar Pro
chords

The Mother's day Song

  		---------------------------------------------------------
----------------------------------------------------------
--4x4x-44-4x4x-44-4x4x-44-7777-6666-----------------------
--4x4x-44-4x4x-44-4x4x-44-7777-6666------------------------
--2x2x-22-2x2x-22-2x2x-22-5555-4444------------------------
-----------------------------------------------------------
                                                                              

-----------------------------------------------------------------------
-----------------------------------------------------------------------
----7p10-----7----7p10---7-----7p10----7-------------------------------
--8--------8----8------8-----8-------8----------------------------------
-----------------------------------------------------------------------
------------------------------------------------------------------------

 


_______________________________________________________
Contribuição: Gui Previtali([email protected])
	  

Search Paypal
auto scroll beats size up size down change color hide chords drawings
tab show chords e-chords YouTube Clip e-chords hide all tabs e-chords go to top tab