Blink 182

home > Blink 182

The Girl Next Door Tab

Blink 182

Difficulty: nolevelnolevel

tuner correct add songbook print version text version save to e-mail
chordsukulelecavacokeyboardtabbassdrummharmonicsflute Guitar Pro
chords

The Girl Next Door

Year: 1994 - Album: Buddha

(Weasel)

  		Ouça a música para pegar a batida certa! E prestem atenção nos comentários, 
eles são muito importantes p/ tocar a música direito. Valeu!

Intro
        G          B           E          C
e|---------------------------------------------------
B|---------------------------------------------------
G|-----------------4-4-4-4-4--------------5-5-5-5-5-- (2x)
D|------5-5-5-5-5--4-4-4-4-4---2-2-2-2-2--5-5-5-5-5--
A|------5-5-5-5-5--2-2-2-2-2---2-2-2-2-2--3-3-3-3-3--
E|------3-3-3-3-3--------------0-0-0-0-0-------------

Solo

e|------------------------------------------------------
B|------------------------------------------------------
G|------------------------------------------------------ (4x)
D|------------------------------------------------------
A|--------2--3-2----------2---5-5-5-5-5-5---------------
E|--3--5----------5---3---------------------------------

VersoI
        G        B        E        C
e|-------------------------------------------
B|-------------------------------------------
G|---------------4-4-4-4-----------*5-5-5-5*- (2x)
D|------5-5-5-5--4-4-4-4--2-2-2-2--*5-5-5-5*-
A|------5-5-5-5--2-2-2-2--2-2-2-2--*3-3-3-3*-
E|------3-3-3-3-----------0-0-0-0------------

Refrão
        G       B       E       C
e|-------------------------------------
B|-------------------------------------
G|--------------4-4-4-----------5-5-5--(4x)
D|------5-5-5---4-4-4---2-2-2---5-5-5--
A|------5-5-5---2-2-2---2-2-2---3-3-3--
E|------3-3-3-----------0-0-0----------

(Ai repete o versoI e o refrão)

VersoII
Toca as notas uma vez solta e o resto abafada, menos o C que é tocado 
igual ao do outro verso!
        G        B        E        C
e|-------------------------------------------
B|-------------------------------------------
G|---------------4-4-4-4-----------*5-5-5-5*-
D|------5-5-5-5--4-4-4-4--2-2-2-2--*5-5-5-5*-
A|------5-5-5-5--2-2-2-2--2-2-2-2--*3-3-3-3*-
E|------3-3-3-3-----------0-0-0-0------------

Toca esse verso uma vez e depois toca o VersoI mais uma vez!
Ai repete o solo 4x e toca o refrão de novo!
A múica termina com uma pequena diferença assim...
        G       B       E       C      B      C
e|----------------------------------------------------
B|----------------------------------------------------
G|--------------4-4-4-----------5-5-5--4-4-4----------
D|------5-5-5---4-4-4---2-2-2---5-5-5--4-4-4--5-5-5---
A|------5-5-5---2-2-2---2-2-2---3-3-3--2-2-2--5-5-5---
E|------3-3-3-----------0-0-0-----------------3-3-3---


É isso ai! Muito Blink e SK8 na veia!
Falow!
Qualquer dúvida, reclamações ou elogios meu mail  é [email protected]

Tirado por
Heitor de Araujo Martins 


_______________________________________________________
Contribuição: Heitor de Araujo Martins([email protected])
	  

Full key step upFull key step up
Half key step upHalf key step up
Half key step downHalf key step down
Full key step downFull key step down
Search Paypal
auto scroll beats size up size down change color hide chords drawings
tab show chords e-chords YouTube Clip e-chords hide all tabs e-chords go to top tab