Blink 182

home > Blink 182

The Country Song Tab

Blink 182

Difficulty: nolevelnolevel

tuner correct add songbook print version text version save to e-mail
chordsukulelecavacokeyboardtabbassdrummharmonicsflute Guitar Pro
chords

The Country Song

  		Baixo Intro
------------------------------------------------------------------------------
------------------------------------------------------------------------------
-3---3---3---3---0-2-3--------------------------------------------------------
---3---3---3---3--------------------------------------------------------------
                                                                              
Guitarra Intro
------------------------------------------------------------------------------
---------1--------------------------------------------------------------------
---------0-----------------5--------------------------------------------------
---------2-----------------x--------------------------------------------------
---0-2-3-3-----------0-2-3-3--------------------------------------------------
-3-----------------3----------------------------------------------------------
                                                                             
-----------|---------|--------------------------------------------------------
---1-1---1-|---------|--------------------------------------------------------
---0-0---0-|---------|--------------------------------------------------------
---2-2---2-|---------|--------------------------------------------------------
-3-3-3---3-|-3---0-2-|--------------------------------------------------------
-------3---|---3-----|--------------------------------------------------------

"verso"
------------------------------------------------------------------------------
------------------------------------------------------------------------------
------------------------------------------------------------------------------
---2---2---2---2---2---2-------------2---2---2---2---2---2---2---2---2--------
-3-------3-------3-------3---0-2---3-------3-------3-------3-------3----------
-----3-------3-------3-----3-----------3-------3-------3-------3--------------
 take of your pants dad            Your penis is the biggest thing my...           

"refrão"
---------------------------0--------------------------------------------------
---------------------------1--------------------------------------------------
---------------------------0--------------------------------------------------
---------------------------2--------------------------------------------------
-3-3-3-3-3-3-5-5-5-5-5-5---3--------------------------------------------------
-1-1-1-1-1-1-3-3-3-3-3-3------------------------------------------------------
 

_______________________________________________________
Contribuição: Guilherme([email protected])
	  

Search Paypal
auto scroll beats size up size down change color hide chords drawings
tab show chords e-chords YouTube Clip e-chords hide all tabs e-chords go to top tab