Blink 182

home > Blink 182

Story of a Lonely Guy Tab

Blink 182

Difficulty: nolevelnolevel

by vejota

tuner correct add songbook print version text version save to e-mail
chordsukulelecavacokeyboardtabbassdrummharmonicsflute Guitar Pro
chords

Story of a Lonely Guy

Year: 2001 - Album: Take off Your Pants and Jacket

  		
InTrO:
b---------------0-0-0-0-0-0-0-0-0-0---
g--------2-2-2------------------------
d-2-2-2-------------------------------

b---------------0-0-0-----------------
g--------2-2-2---------2-2-2-2-2-2-2--
d-2-2-2-------------------------------


Versos:

D-2-2-2-2-2-2-2-2-4-4-4-4-4-4-4-
A-0-0-0-0-0-0-0-0-2-2-2-2-2-2-2-


D-6-6-6-6-6-6-6-6-7-7-7-7-7-7-7-7-
A-4-4-4-4-4-4-4-4-5-5-5-5-5-5-5-5-



Pre:
D-7-7-7-7-7-7-7-7-7-7-7-7-7-7-7-
A-4-4-4-4-4-4-4-4-5-5-5-5-5-5-5-

D-7-7-7-7-7-7-7-7-9-9-9-9-9-9-9-9-
A-0-0-0-0-0-0-0-0-7-7-7-7-7-7-7-7-

Refrão:
G-----------------9-9-9-9-9-9-9-9-
D-7-7-7-7-7-7-7-7-9-9-9-9-9-9-9-9-
A-7-7-7-7-7-7-7-7-7-7-7-7-7-7-7-7-
E-5-5-5-5-5-5-5-5-----------------

G-----------------7-7-7-7-7-7-7-7-
D-4-4-4-4-4-4-4-4-7-7-7-7-7-7-7-7-
A-4-4-4-4-4-4-4-4-5-5-5-5-5-5-5-5-
E-2-2-2-2-2-2-2-2-----------------

Inter:
G----------------------------------9--9--9--9-
D-7-7-7-7-7-7-7-7-7-7-7-7-7-7-7-7--9--9--9--9-  (2X)
A-4-4-4-4-4-4-4-4-5-5-5-5-5-5-5-5--7--7--7--7-

D-7-7-7-7-7-7-7-7-7-7-7-7-7-7-7-7--
A-4-4-4-4-4-4-4-4-5-5-5-5-5-5-5-5-    (3X)
	  

Search Paypal
auto scroll beats size up size down change color hide chords drawings
tab show chords e-chords YouTube Clip e-chords hide all tabs e-chords go to top tab