Blink 182

home > Blink 182

Stay Togheter For The Kids Tab

Blink 182

Difficulty: BeginnerBeginner

by blinkrick

tuner correct add songbook print version text version save to e-mail
chordsukulelecavacokeyboardtabbassdrumsharmonicsflute Guitar Pro
chords

Stay Togheter For The Kids

  		INTRO: 
e|------------------|-------------------|-------------------|-----------------------| 
B|------------------|-------------------|-------------------|-----------------------| 
G|------------------|-------------------|-------------------|-----------------------|2x 
D|--0---7--0---4--0-|--0---7--0---4--0--|--0---4--0---5--0--|--2----4--5--4--2--0---| 
A|5---5------5------|4---4------4-------|2---2------4-------|0---0------------------| 
E|------------------|-------------------|-------------------|-----------------------| 

Riff 1: 
e|--------------------------------|------------------------------| 
B|--------------------------------|------------------------------| 
G|--------------------------------|------------------------------| 
D|------7-----7------7------7-----|------7------7------7-----7---| 
A|--5-5-----5----5-5------5-------|--4-4------4----4-4-----4-----| 
E|--------------------------------|------------------------------| 

e|--------------------------------|------------------------------| 
B|--------------------------------|------------------------------| 
G|--------------------------------|------------------------------| 
D|------7-----7------7------7-----|------7------7------7-----7---| 
A|--------------------------------|------------------------------| 
E|--7-7-----7----7-7------7-------|--5-5------5----5-5------5----| 
(Toca o Riff 1 ate começar o Refrão) 

(Riff 1) 
Its hard to wake up 
when the shades have been pulled shut 
This house is haunted  
its so pathetic  
it makes no sense at all 
I'm ripe with things to say  
the words rot and fall away 
What stupid poem could fix this home  
I'd read it every day 

(Toca no Refrão)  
e|-----------------------------------------------------| 
B|-----------------------------------------------------| 
G|-----------------------------------------------------| 
D|-5555555555555555----4444444444444444-------------------| 
A|-5555555555555555----4444444444444444-------------------| 
E|-3333333333333333-0--2222222222222222-------------------|4x|  

OU 

G5                   F#5                          
So here`s your holiday                           
         G5                                       
Hope you, enjoy it this time                     
                  F#5                             
You gave it all away                             
          G5                                    
It was mine                                    
                         F#5                    
So when you`re dead and gone                   
         G5                                     
Will you, remember this night, twenty years    
     F#5                                         
now lost                                       
                                               
It`s not right 
(Após o Refrão Tocar Intro (2x) e continuar no Riff 1) 

The anger hurts my ears 
been running strong for seven years 
Rather then fix the problem 
they never solve them  
it makes no sense at all 
I see them everyday  
we get along so why can't they? 
If this is what he wants  
and its what she wants  
then why's there so much pain?                                 

(Toca no Refrão)  
e|-----------------------------------------------------| 
B|-----------------------------------------------------| 
G|-----------------------------------------------------| 
D|-5555555555555555-4444444444444444-------------------| 
A|-5555555555555555-4444444444444444-------------------| 
E|-3333333333333333-2222222222222222-------------------|4x|  

OU 

G5                   F#5                          
So here`s your holiday                           
         G5                                       
Hope you, enjoy it this time                     
                  F#5                             
You gave it all away                             
          G5                                    
It was mine                                    
                         F#5                    
So when you`re dead and gone                   
         G5                                     
Will you, remember this night, twenty years    
     F#5                                         
now lost                                       
                                               
It`s not right 

Interlude : 
e|------------------------| 
B|------------------------| 
G|-7~----------7~---9~----| 
D|-7~----------7~---9-----| 
A|-5~----------5~---7-----| 
E|------------------------|  

(Nesta parte vc toca 2x antes do Refrão e no Refrão vc toca 4x igual as outras vezes)  
e|-----------------------------------------------------| 
B|-----------------------------------------------------| 
G|-----------------------------------------------------| 
D|-5555555555555555-4444444444444444-------------------| 
A|-5555555555555555-4444444444444444-------------------| 
E|-3333333333333333-2222222222222222-------------------| 

Ou  

G5                   F#5                          
So here`s your holiday                           
         G5                                       
Hope you, enjoy it this time                     
                  F#5                             
You gave it all away                             
          G5                                    
It was mine                                    
                         F#5                    
So when you`re dead and gone                   
         G5                                     
Will you, remember this night, twenty years    
     F#5                                         
now lost                                       
                                               
It`s not right 

(Tocar ate a musica acabar) 
e|---------------------------------------------------| 
B|---------------------------------------------------| 
G|---------------------------------------------------| 
D|-5555555555555555-4444444444444444-----------------| 
A|-5555555555555555-4444444444444444-----------------| 
E|-3333333333333333-2222222222222222-----------------| 

(guitarra 2) 
e|------|---0-2-------| 
B|---3--|-3-----3-----| 
G|-2----|-------------|(Tocar ate a musica acabar) 
D|------|-------------| 
A|------|-------------| 
E|------|-------------| 
	  

Full key step upFull key step up
Half key step upHalf key step up
Half key step downHalf key step down
Full key step downFull key step down
Search Paypal
auto scroll beats size up size down change color hide chords drawings
tab show chords e-chords YouTube Clip e-chords hide all tabs e-chords go to top tab