Blink 182

home > Blink 182

Stay together for the kids (acoustic) Tab

Blink 182

Difficulty: ExpertExpert

by carlos01

tuner correct add songbook print version text version save to e-mail
chordsukulelecavacokeyboardtabbassdrumsharmonicsflute Guitar Pro
chords

Stay together for the kids (acoustic)

  		----------------------------------------------------------------- 
----------------------------------------------------------------- 
----------------------------------------------------------------- 
------0----7----0-4-0-----0---7---0-4-0------0---4---0-2-0------- 
----5---5-----5---------4---4---4----------2---2---2------------- 
----------------------------------------------------------------- 
                             
                                                                           
-------------------------   ----------------------------------------------- 
-------------------------   ----------------------------------------------- 
-------------------------   ----------------------------------------------- 
-----2-----4-5-4-2-0-----   7~----------------7~--------4~-------2~-------- 
--0-----0----------------   5~----------------4~--------2~-------0~--x3---- 
-------------------------   ----------------------------------------------- 
 
 
 
so heres your holiday....            
------------------------- 
------------------------- 
------------------------- 
----5------4------------- 
----5-x16--4-x16--------- 
----3------2------------- 
 
 
 
 
~=let ring 
blink 182 rox 

	  

Search Paypal
auto scroll beats size up size down change color hide chords drawings
tab show chords e-chords YouTube Clip e-chords hide all tabs e-chords go to top tab