Blink 182

home > Blink 182

Stay Together 4 the Kids Tab

Blink 182

Difficulty: EasyEasy

by JoFaNaN

tuner correct add songbook print version text version save to e-mail
chordsukulelecavacokeyboardtabbassdrumsharmonicsflute Guitar Pro
chords

Stay Together 4 the Kids

Year: 2005 - Album: Blink 182 - Greatest Hits

  		Blink 182 stay together for the kids 
intro: 
(play twice) 
|----------------------------------------------------------------| 
|----------------------------------------------------------------| 
|----------------------------------------------------------------| 
|--0---7-0---4-0---0---7-0---4-0---0---4-0---5-0---2---4-5-4-2-0-| 
|5---5-----5-----4---4-----4-----2---2-----2-----0---0-----------| 
|----------------------------------------------------------------| 
 
 
 
verse: 
(play twice) 
|---------------------------------------------------------------- 
|----3-------3-------3-------3-------3-------3-------3-------3--- 
|----2-------2-------2-------2-------2-------2-------2-------2--- 
|0-0-----0-0-----0-0-----0-0------------------------------------- 
|--------------------------------2-2-----2-2-----2-2-----2-2----- 
|---------------------------------------------------------------- 
 
|----------------------------------------------------------------| 
|----3-------3-------3-------3-------5-------5-------2-------2---| 
|----2-------2-------2-------2-------4-------4-------2-------2---| 
|----------------------------------------------------------------| 
|0-0-----0-0-----0-0-----0-0-----0-0-----0-0-----0-0-----0-0-----| 
|----------------------------------------------------------------| 
 
chours: 
(play four times) 
|----------------------------------------------------------------| 
|----------------------------------------------------------------| 
|----------------------------------------------------------------| 
|5-5-5-5-5-5-5-5-5-5-5-5-5-5-5-5-4-4-4-4-4-4-4-4-4-4-4-4-4-4~----| 
|5-5-5-5-5-5-5-5-5-5-5-5-5-5-5-5-5-5-5-5-5-5-5-5-5-5-5-5-5-5~----| 
|3-3-3-3-3-3-3-3-3-3-3-3-3-3-3-3-2-2-2-2-2-2-2-2-2-2-2-2-2-2-0-2-| 
 
or you can just do this in the last two notes of the Chorus 
-------------| 
-------------| 
-------------| 
-4-4-4-4-4-4-| 
-5-5-5-5-5-5-| 
-2-2-2-2-0-2-| 
notice---^-^        
here   
 
bridge: 
(play twice) 
|----------------------------------------------------------------| 
|----------------------------------------------------------------| 
|7-----------------------2-------7-----------------------2-------| 
|7---------------5-------2-------7---------------5-------2-------| 
|5---------------5-------0-------5---------------5-------0-------| 
|----------------3-------------------------------3---------------| 
 
NOW heres the order: 
 
intro 
verse 
Chorus 
intro 
verse 
Chorus 
bridge 
chours (repeat till end) 
 
and then you fade away out of a great song. thats about it. just follow all  
the directions and you will be just fine 
 

	  

Search Paypal
auto scroll beats size up size down change color hide chords drawings
tab show chords e-chords YouTube Clip e-chords hide all tabs e-chords go to top tab