Blink 182

home > Blink 182

Stay 2gether 4 the kids Tab

Blink 182

Difficulty: IntermediateIntermediate

by carlos01

tuner correct add songbook print version text version save to e-mail
chordsukulelecavacokeyboardtabbassdrumsharmonicsflute Guitar Pro
chords

Stay 2gether 4 the kids

  		 
 
 
 ------------------------------------------------- 
 ------5----5-----5---------4---4-----4----------- 
 --------0------7---0-4-0-----0-----7----0--4-0--- 
 ------------------------------------------------- 
 ------------------------------------------------- 
 ------------------------------------------------- 
 
 
  ------------------------------------------------ 
  ------2---2-----2---------------0--------------- 
  --------0----4-----0--2--0--------2-2-4-5-4-2-0- x2 
  ------------------------------------------------ 
  ------------------------------------------------ 
  ------------------------------------------------ 
 
  --------------------------------------------------- 
  --------------2-2-2--------0-0-0------------------- 
  --0-0-0----------------------------------0-0-0----- 
  --------2-x4--------2-x4-----------2--x4-------2x4- 
  --------3-----------3------------3-------------3--- 
  --------------------------------------------------- 
   its hard to wake up .... 
  ---------------------------------------------------- 
  --5---------------------4------------------2----0--- 
  --7---------------------7------------------4----2--- x2 
  --7---------------------7------------------4----2--- 
  ---------------------------------------------------- 
  ---------------------------------------------------- 
  so heres your holiday........... 
  ---------------------------------------------------- 
  --2-----------------------------3------------------- 
  --4-x16-------------------------5-x16--------------- 
  --4-----------------------------5------------------- 
  ---------------------------------------------------- 
  ---------------------------------------------------- 
just play this again blink 182 rocks!!!!!!!!!!!!!!!!!!! 
!!!!!!!!!!!!!!!!!!!!!!!!!!!!!!!!!!!!!!!!!!!!!!!!!!!!!!! 
 

	  

Search Paypal
auto scroll beats size up size down change color hide chords drawings
tab show chords e-chords YouTube Clip e-chords hide all tabs e-chords go to top tab