Blink 182

home > Blink 182

Point Of View Tab

Blink 182

Difficulty: nolevelnolevel

tuner correct add songbook print version text version save to e-mail
chordsukulelecavacokeyboardtabbassdrumsharmonicsflute Guitar Pro
chords

Point Of View

Year: 1994 - Album: Buddha

(Blink 182)

  		 
Intro:x1 
e|---------------------------------------------------------------| 
B|---------------------------------------------------------------| 
G|-----------------------------------------6-7-------------------| 
D|-18-18-18-18-18-18-18-18-18-18-18-18-7-7-6-7-18-18-18-18-18-18-| 
A|-------------------------------------7-7-4-5-------------------| 
E|-------------------------------------5-5-----------------------| 
 
e|---------------------------------------------------------------| 
B|---------------------------------------------------------------| 
G|-------------------------------6-7-------------19--------------| 
D|-7-7-4-2-------------------7-7-6-7-18-18-18-18----18-7-7-4-2---| 
A|-7-7-4-2-19-19-19-19-19-19-7-7-4-5-------------------7-7-4-2---| 
E|-5-5-2-0-------------------5-5-----------------------5-5-2-0---| 
 
verse:x4 
e|---------------------------------------------------------------| 
B|---------------------------------------------------------------| 
G|-----6-7-777-------9-999---------------------------------------| 
D|-7-7-6-7-777-7-7-4-9-999---------------------------------------| 
A|-7-7-4-5-555-7-7-4-7-777---------------------------------------| 
E|-5-5---------5-5-2---------------------------------------------| 
   p.m         p.m  
 
pre-chorus:x2 
e|---------------------------------------------------------------| 
B|---------------------------------------------------------------| 
G|-----999-------------------------------------------------------| 
D|-777-999-999-777-----------------------------------------------| 
A|-777-777-999-777-----------------------------------------------| 
E|-555-----777-555-----------------------------------------------| 
 
chorus:x2 
e|---------------------------------------------------------------| 
B|---------------------------------------------------------------| 
G|-9-9-----------------------------------------------------------| 
D|-9-9-11-11-11-11-9-9-12-12-12-12-------------------------------| 
A|-7-7--9--9--9--9-9-9-12-12-12-12-------------------------------| 
E|-----------------7-7-10-10-10-10-------------------------------| 
 
 
_______________________________________________________ 
Contribuição: Juliano Viegas Taveira([email protected]) 

	  

Search Paypal
auto scroll beats size up size down change color hide chords drawings
tab show chords e-chords YouTube Clip e-chords hide all tabs e-chords go to top tab