Blink 182

home > Blink 182

M&M Tab

Blink 182

Difficulty: nolevelnolevel

by cnkbfd

tuner correct add songbook print version text version save to e-mail
chordsukulelecavacokeyboardtabbassdrumsharmonicsflute Guitar Pro
chords

M&M

  		E|-0-4-0-5-0-7-5-4-5---0-2-0-4-0-5-4-2-0------------------------------- 
B|--------------------------------------------------------------------- 
G|--------------------------------------------------------------------- 
D|--------------------------------------------------------------------- 
A|--------------------------------------------------------------------- 
E|--------------------------------------------------------------------- 
   
E|-------------------------------------------------------------------- 
B|-------------------------------------------------------------------- 
G|--9-9-9-9-9-9-9-9-9-9-9-9-9-9-9-9----------------------------------- 
D|-----------------6-6-6-6-7-7-7-7------------------------------------ 
A|-7-7-7-7-9-9-9-9---------------------------------------------------- 
E|-------------------------------------------------------------------- 
You and I should get away for a while 
I just wanna be alone with your smile 
 
E|-------------------------------------------------------------------- 
B|-------------------------------------------------------------------- 
G|-9-----------------9------------------------------------------------ 
D|-9-----------------9------------------------------------------------ 
A|-7----9-7-9-7-6-7--7---9-7-9-7-6------------------------------------ 
E|--------------------------------------------------------------------  
 
Grab some candy and cigarettes and we'll get in my car 
We'll blast the stereo and we'll drive to Madagascar 
  
Chorus: 
        E      B         C#               A 
Cuz when I'm with you there's nothing I wouldn't do 
E    B       C#         A 
I just wanna be yer only one  
E            B       C#                   A 
I'm grasping at straws thinking back to what i saw 
E             B       C#                   A 
that night on the floor when we were all alone 
  
E|-0-4-0-5-0-7-5-4-5---0-2-0-4-0-5-4-2-0------------------------------- 
B|--------------------------------------------------------------------- 
G|--------------------------------------------------------------------- 
D|--------------------------------------------------------------------- 
A|--------------------------------------------------------------------- 
E|--------------------------------------------------------------------- 
 
E|-------------------------------------------------------------------- 
B|-------------------------------------------------------------------- 
G|--9-9-9-9-9-9-9-9-9-9-9-9-9-9-9-9----------------------------------- 
D|-----------------6-6-6-6-7-7-7-7------------------------------------ 
A|-7-7-7-7-9-9-9-9---------------------------------------------------- 
E|--------------------------------------------------------------------  
My love life was getting so bland 
There are only so many ways i can make love with my hand 
       
E|-------------------------------------------------------------------- 
B|-------------------------------------------------------------------- 
G|-9-----------------9------------------------------------------------ 
D|-9-----------------9------------------------------------------------ 
A|-7----9-7-9-7-6-7--7---9-7-9-7-6------------------------------------ 
E|-------------------------------------------------------------------- 
Sometimes it makes me want to laugh 
Sometimes i wanna take my toaster in the bath 
 

	  

Full key step upFull key step up
Half key step upHalf key step up
Half key step downHalf key step down
Full key step downFull key step down
Search Paypal
auto scroll beats size up size down change color hide chords drawings
tab show chords e-chords YouTube Clip e-chords hide all tabs e-chords go to top tab