Blink 182

home > Blink 182

I Miss You no Rove Tab

Blink 182

Difficulty: BeginnerBeginner

by tom+delonge182

tuner correct add songbook print version text version save to e-mail
chordsukulelecavacokeyboardtabbassdrumsharmonicsflute Guitar Pro
chords

I Miss You no Rove

  		Essa é a versão ao vivo no Rove. 
 
d - batida para baixo 
u - batida para cima 
i - casa 11 
t - casa 13 
 
Nessa música o tom utiliza uma braçadeira de cordas na  
casa 2 
 
Intro: 
 
e|----------------------------------------------------| 
B|----------------------------------------------------| 
G|----------------------------------------------------| 
D|-9-9-9-9/t-t-t-t-----------t-t-t-t-t-t-t-t----------| 
A|-x-x-x-x-x-x-x-x-(6vezes)--x-x-x-x-x-x-x-x-(2vezes)-| 
E|-7-7-7-7/i-i-i-i-----------i-i-i-i-i-i-i-i----------| 
   d-u-d-u-d-u-d-d           d-u-d-u-d-u-d-d 
 
Verso 1 parte 1: 
 
e|--------------------------| 
B|--------------------------| 
G|--------------------------| 
D|-9-9-9-9/t-t-t-t----------| 
A|-x-x-x-x-x-x-x-x-(6vezes)-| 
E|-7-7-7-7/i-i-i-i----------| 
   d-u-d-u-d-u-d-d 
 
Essa parte do verso se toca 6 vezes, durante essa parte do verso 
 
Hello there, the angel from my nightmare 
The shadow in the background of the morgue 
The unsuspecting victim of darkness in the valley 
 
Verso 1 parte 2: 
 
e|--------------------------| 
B|--------------------------| 
G|--------------------------| 
D|-t-t-t-t-t-t-t-t----------| 
A|-x-x-x-x-x-x-x-x-(6vezes)-| 
E|-i-i-i-i-i-i-i-i----------| 
   d-u-d-u-d-u-d-d 
 
Essa segunda parte se toca 6 vezes também, até o final 
 
We can live like Jack and Sally if we want  
Where you can always find me 
We'll have Halloween on Christmas 
And in the night we'll wish this never ends 
We'll wish this never ends 
 
Ponte: 
 
O tom deixa a guitarra perto do amplificador para obter  
uma microfonia na primeira e na segunda batida na  
terceira ele bati nas cordas e logo depois abafa o som 
 
e|----------------------------| 
B|----------------------------| 
G|----------------------------| 
D|-9~~~----9~~~---------------| 
A|-x~~~----x~~~---------------| 
E|-7~~~----7~~~-7-------------| 
   u       u 
 
Verso 2: 
 
e|-----------------------------------| 
B|-----------------------------------| 
G|-----------------------------------| 
D|-9-9-9-9-9-9-9-9--6-6-6-6--9-9-9-9-|4 vezes 
A|-x-x-x-x-x-x-x-x--x-x-x-x--x-x-x-x-| 
E|-7-7-7-7/6-6-6-6--4-4-4-4--6-6-6-6-| 
 
Toque isto durante todo o segundo verso 
 
Where are you and I'm so sorry 
I cannot sleep I cannot dream tonight 
I need somebody and always 
This sick strange darkness  
Comes creeping on so haunting every time 
And as I stared I counted  
Webs from all the spiders 
Catching things and eating their insides 
Like indecision to call you 
and hear your voice of treason 
Will you come home and stop this pain tonight 
Stop this pain tonight 
 
Refrão: 
 
O nº de batidas ai não estão totalmente certus, mas é  
mais ou menos esses nº vocês pegam durante a música 
 
e|-------------------------------------------------------------------| 
B|-------------------------------------------------------------------| 
G|----------------------------------6-6-6-6--8-8-8-8--9-9-9-9-9-9-9-9| 
D|-9-9-9-9-9-9-9-9-9-9-9-9-9-9-9-9--6-6-6-6--8-8-8-8--9-9-9-9-9-9-9-9|2 vezes 
A|-9-9-9-9-9-9-9-9-9-9-9-9-9-9-9-9--4-4-4-4--6-6-6-6--7-7-7-7-7-7-7-7| 
E|-7-7-7-7-7-7-7-7-7-7-7-7-7-7-7-7-----------------------------------| 
 
Ponte 2: 
 
e|----------------------------------| 
B|----------------------------------| 
G|-----i---------i---------i---i----| 
D|-9-9---9/8-8-8---8/9-9-9---9---i--|2 vezes 
A|----------------------------------| 
E|----------------------------------| 
 
Refrão:  
 
e|-------------------------------------------------------------------| 
B|-------------------------------------------------------------------| 
G|----------------------------------6-6-6-6--8-8-8-8--9-9-9-9-9-9-9-9| 
D|-9-9-9-9-9-9-9-9-9-9-9-9-9-9-9-9--6-6-6-6--8-8-8-8--9-9-9-9-9-9-9-9|4 vezes 
A|-9-9-9-9-9-9-9-9-9-9-9-9-9-9-9-9--4-4-4-4--6-6-6-6--7-7-7-7-7-7-7-7| 
E|-7-7-7-7-7-7-7-7-7-7-7-7-7-7-7-7-----------------------------------| 
 
Final: 
 
Essas são as notas finais da música, só q para pegar o  
nº de batidas e tempo é só ouvir a música e tocar junto pra ver 
 
e|---------| 
B|---------| 
G|---------| 
D|---------|4 vezes 
A|-9--i--t-| 
E|-7--9--i-| 

	  

Search Paypal
auto scroll beats size up size down change color hide chords drawings
tab show chords e-chords YouTube Clip e-chords hide all tabs e-chords go to top tab