Blink 182

home > Blink 182

Horny pigs like sex( horny pigs cover) Tab

Blink 182

Difficulty: nolevelnolevel

by scarpino

tuner correct add songbook print version text version save to e-mail
chordsukulelecavacokeyboardtabbassdrumsharmonicsflute Guitar Pro
chords

Horny pigs like sex( horny pigs cover)

  		 
         |-------------------------------------------------------------------------------| 
|										     | 
                                                                                 
||---------------------------------------------|---------------------||--------- 
||---------------------------------------------|---------------------||--------- 
||*--2-----2--2-----2--2--2--2--2-----2--2--2--|--2-----2--2--2--2--*||--------- 
||*--1-----1--1-----1--1--1--1--1-----1--1--1--|--1-----1--1--1--1--*||--------- 
||---------------------------------------------|---------------------||--------- 
||---------------------------------------------|---------------------||--------- 
             
Riff 1                                                                 
D|-----|-0---0-0---0---0-0--0-0-0------|-0---0-----0-0---0-0-0-0-----| 
D|-----|-0---0-0---0---0-0--0-0-0------|-0---0-----0-0---0-0-0-0-----| 
A|-7-7-|-7/9-9-9\7-7\5-5-5--0-0-0--7-7-|-7/9-9-9\7-0-9\5-5-5-5-5-7-7-| 
D|-0-0-|-0---0-0---0---0-0--0-0-0--0-0-|-0---0-0---0-0---0-0-0-0-0-0-| 
A|-0-0-|-7/9-9-9\7-7\5-5-5--0-0-0--0-0-|-7/9-9-9\7-0-9\5-5-5-5-5-0-0-| 
D|-0-0-|-0---0-0---0---0-0--0-0-0--0-0-|-0---0-0---0-0---0-0-0-0-0-0-| 
 
                                         End of riff 1 
 -0---0---0-0-0-0---0-0-0-|-0---0-0-0-0---0-0--------| 
 -0---0---0-0-0-7---7-0-0-|-0---0-0-0-0---0-0--------| 
 -7/9-9\7-7-0-0-0---0-0-0-|-5/7-7-7-0-4/5-5-5--------| 
 -0---0---0-0-0-0---0-0-0-|-0---0-0-0-X---0-0--------| 
 -X---X---X-0-0-X---X-0-0-|-X---X-X-0-4/5-5-5--------| 
 -7/9-9\7-7-0-0-5---5-0-0-|-5/7-7-7-0-0---0-0---0-0--| 
 
                          ___________________________________________________________ 
Verses 1 & 2 (Gtr.1-clean)|1. 
D|| -0-------|-----5------|-0---0-0---0---0--0-------|-0---0-0---0-----0--0-------- || 
D|| -0-------|-----5------|-0---0-0---0---0--0-------|-0---0-0---0-----0--0-------- || 
A||.-4-------|-----5------|-7/9-9-9\7-7\5-5--5---7-7-|-7/9-9-9\7-7/12-12-12----0-0-.|| 
D||.-4-----0-|-----5----0-|-0---0-0---0---0--0---0-0-|-0---0-0---0-----0--0----0-0-.|| 
A|| -2-----0-|---5------0-|-7/9-9-9\7-7\5-5--5---0-0-|-7/9-9-9\7-7/12-12-12----0-0- || 
D|| ---------|-5----------|-0---0-0---0---0--0---0-0-|-0---0-0---0-----0--0----0-0- || 
  ___________________________ 
 |2. 
D|-0---0-0---0-----0---0-----|-----0-0---------0----0-0-0-0-|-0----0----0-0-0-0----0-0-0-0-| 
D|-0---0-0---0-----7---7-----|-----0-0---------0----0-0-0-0-|-0----0----0-0-0-0----0-0-0-0-| 
A|-7/9-9-9\7-7-0-0-0---0-0-0-|-5/7-7-7-0-4/5-5-5----5-5-0-0-|-4----4----4-4-4-4----4-4-0-0-| 
D|-0---0-0---0-0-0-0---0-0-0-|-0---0-0-0-X---0-0----0-0-0-0-|-4----4----4-4-4-4----4-4-0-0-| 
A|-X---X-X---X-0-0-X---X-0-0-|-X---X-X-0-4/5-5-5----5-5-0-0-|-2----2----2-2-2-2----2-2-0-0-| 
D|-7/9-9-9\7-7-0-0-5---5-0-0-|-5/7-7-7-0-------0----0-0-0-0-|------------------------------| 
 
 -0----0----0-0-0-0--0-0-0-0-| 
 -5----5----5-5-5-5--5-5-0-0-| 
 -0----0----0-0-0-0--0-0-0-0-| 
 -0----0----0-0-0-0--0-0-0-0-| 
 -X----X----X-X-X-X--X-X-0-0-| 
 -5----5----5-5-5-5--5-5-0-0-|                    
  
                                                                   Dist. on 
D|-0----0---0----0-0-0-0---0-0-|-0----0---0---0-0--0-0-0-0-|-0-------------| 
D|-0----0---0----0-0-0-0---0-0-|-0----0---0---0-0--0-0-0-0-|-5-------------| 
A|-0----0---0----0-0-0-5/7-0-0-|-4----4---4---4-4--4-4-0-0-|-0-----0-0-0-0-| 
D|-0----0---0----0-0-0-0---0-0-|-4----4---4---4-4--4-4-0-0-|-0-----0-0-0-0-| 
A|-0----0---0----0-0-0-5/7-0-0-|-2----2---2---2-2--2-2-0-0-|-X-----0-0-0-0-| 
D|-0----0---0----0-0-0---------|---------------------------|-5-----0-0-0-0-| 
 
Chorus 1 & 2 
Riff 2                                                                                            
D|-0---0-0-0--------------------|---------0-0-5----5-5---5-5-0-0-|-0----0----0----0-0---0-0-0-0-| 
D|-0---0-0-0--------------------|---------0-0-5----5-5---5-5-0-0-|-0----0----0----0-0---0-0-0-0-| 
A|-X---X-X-X-7----7-7---7-7-0-0-|-4----4--0-0-5----5-5---5-5-0-0-|-4----4----4----4-4---4-4-0-0-| 
D|-7---7-7-7-7----7-7---7-7-0-0-|-4----4--0-0-5----5-5---5-5-0-0-|-2----2----2----2-2---2-2-0-0-| 
A|-5---5-5-5-4----4-4---4-4-0-0-|-2----2--0-0-5----5-5---5-5-0-0-|-0----0----0----0-0---0-0-0-0-| 
D|-0---0-0-0-0----0-0---0-0-0-0-|---------0-0-5----5-5---5-5-0-0-|--------------------------0-0-| 
 
                   End of riff 2  
  -5--5-5-5--5-5-5-5-5--5-5-0-0-| 
  -5--5-5-5--5-5-5-5-5--5-5-0-0-| 
  -5--5-5-5--5-5-5-5-5--5-5-0-0-| 
  -5--5-5-5--5-5-5-5-5--5-5-0-0-| 
  -5--5-5-5--5-5-5-5-5--5-5-0-0-| 
  -5--5-5-5--5-5-5-5-5--5-5-0-0-| 
 
D|-0---0-0-0-------------------|-------0-0-5--------0-0-0-| 
D|-0---0-0-0-------------------|-------0-0-5--------0-0-0-| 
A|-X---X-X-X-7----7-7--7-7-0-0-|-4---4-0-0-5--------0-0-0-| 
D|-7---7-7-7-7----7-7--7-7-0-0-|-4---4-0-0-5--------0-0-0-| 
A|-5---5-5-5-4----4-4--4-4-0-0-|-2---2-0-0-5--------0-0-0-| 
D|-0---0-0-0-0----0-0--0-0-0-0-|-------0-0-5--------0-0-0-| 
 
Then play last 2 bars of Riff 2 
        P.M. 
D|-0--0-------------------|------0-0-5--|-(5)-|--| 
D|-0--0-------------------|------0-0-5--|-(5)-|--| 
A|-X--X-----7-7---7-7-0-0-|-4----0-0-5--|-(5)-|--| 
D|-7--7-----7-7---7-7-0-0-|-4----0-0-5--|-(5)-|--| 
A|-5--5-----4-4---4-4-0-0-|-2----0-0-5--|-(5)-|--| 
D|-0--0-0-0-0-0---0-0-0-0-|------0-0-5--|-(5)-|--| 
 
Interlude                                                                
(dist. off)                                                            | 
D|| -0------0---0--------|-----5--------0-|-0---0--0---0-0---------0-0-| 
D|| -0-------------------|-----5--------0-|-0---0--0---0-0-2h4p2p0-0-0-| 
A||.-4------------4--0-0-|-----5--------0-|-0---0--0---0-0-0-------0-0-| 
D||.-4----4----------0-0-|-5---5------5-0-|-0---0--0---0-0-0-------0-0-| 
A|| -2---------------0-0-|-5----------5-0-|-0--------------------------| 
D|| -----------------0-0-|-5----------5-0-|-0--------------------------| 
 
   __________________________________    
   1.                                    
   -0---0-0-0-0----0-0-0---------0-0- || 
   -2---2-2-2-0----0-0-0-2h4p2p0-0-0- || 
   -0---0-0-0-0----0-0-0-0-------4-0-.|| 
   -0---0-0-0-0----0-0-0-0-----------.|| 
   ---------------------------------- || 
   ---------------------------------- ||   
 
(dist. on) 
  _________________________________ 
 |2.                                Riff 3                                    End of Riff 3   
D|-0---0-0-0-0---0-0-0---------0-0-|------0---0---0-0---0-0-0-0-|-----5---5---5-5---5-5-5-5-| 
D|-2---2-2-2-4---4-4-4-2h4p2p0-0-0-|------0---0---0-0---0-0-0-0-|-----5---5---5-5---5-5-5-5-| 
A|-0---0-0-0-0---0-0-0-0-------4-0-|------4---4---4-4---4-4-0-0-|-----5---5---5-5---5-5-5-5-| 
D|-0---0-0-0-0---0-0-0-0-----------|-4----4---4---4-4---4-4-0-0-|-5---5---5---5-5---5-5-5-5-| 
A|---------------------------------|-2----2---2---2-2---2-2-0-0-|-5---5---5---5-5---5-5-5-5-| 
D|---------------------------------|----------------------------|-5---5---5---5-5---5-5-5-5-| 
 
  Riff 3A                         End of Riff 3A  
  --------0------0-0-0-0-|--------0-----0---0-0-| 
  --------0------0-0-0-0-|--------0-----0---0-0-| 
  --------0------5-5-5-5-|--------0-----5/7-7-0-| 
  --------0------0-0-0-0-|--------0-----0---0-0-| 
 
 
 

	  

Search Paypal
auto scroll beats size up size down change color hide chords drawings
tab show chords e-chords YouTube Clip e-chords hide all tabs e-chords go to top tab