Blink 182

home > Blink 182

Here’s Your Letter Tab

Blink 182

Difficulty: nolevelnolevel

by JESSBT

tuner correct add songbook print version text version save to e-mail
chordsukulelecavacokeyboardtabbassdrumsharmonicsflute Guitar Pro
chords

Here’s Your Letter

  		 O sinal (~) significa: Deixar soar..! 

 Ouçam a música para pegar..ela é bem rápida .! :P  

  Intro: 

 e|------------------------------------------------------------------------------------------------| 
 B|------------------------------------------------------------------------------------------------| 
 G|----------------7-7-7-7-7-7--------------------------------------------------7-7-7-7------------| 
 D|---4-4-4-4-4-4--7-7-7-7-7-7--11-11-11-11-11-----/-12-/-9-9-9-9-9--4-4-4-4-4--7-7-7-7--7-7-7-7---| 
 A|---4-4-4-4-4-4--5-5-5-5-5-5--11-11-11-11-11-----/-12-/-9-9-9-9-9--4-4-4-4-4--5-5-5-5--7-7-7-7---| 
 E|---2-2-2-2-2-2----------------9--9--9--9--9-----/-10-/-7-7-7-7-7--2-2-2-2-2-----------5-5-5-5---| 

  Verso 1:Primeira parte no baixo  

 G|--------------------------------|-------------------------------| 
 D|--------------------------------|-------------------------------| 
 A|--------5555-5---------2222-4-2-|--------5555-5-00000000000000--| 
 E|-2222-2--------0000-0-----------|-2222-2------------------------| 

 G|--------------------------------|-------------------------------| 
 D|--------------------------------|-------------------------------| 
 A|--------5555-5---------2222-4-2-|--------5555-5-00000000000000--| 
 E|-2222-2--------0000-0-----------|-2222-2------------------------| 

  Segunda parte entra uma guitarrinha 
  (Palm mute) 

 e|------------------------------------------------------------------| 
 B|------------------------------------------------------------------| 
 G|--------------------7-7-7-7-7-7-----------------------------------| 
 D|---4-4-4-4-4-4------7-7-7-7-7-7------7-7-7-7-7-7------9-9-9-9-9-9-| 
 A|---4-4-4-4-4-4------5-5-5-5-5-5------7-7-7-7-7-7------9-9-9-9-9-9-| 
 E|---2-2-2-2-2-2-----------------------5-5-5-5-5-5------7-7-7-7-7-7-| 
  
 e|------------------------------------------------------------------| 
 B|------------------------------------------------------------------| 
 G|--------------------7-7-7-7-7-7-----------------------------------| 
 D|---4-4-4-4-4-4------7-7-7-7-7-7------7~~--------------------------| 
 A|---4-4-4-4-4-4------5-5-5-5-5-5------7~~--------------------------| 
 E|---2-2-2-2-2-2-----------------------5~~--------------------------| 

  Refrão: 

   _______________________________2x_________________________________ 
 e|------------------------------------------------------------------| 
 B|------------------------------------------------------------------| 
 G|----------------------7-7-7-7-7-----------------------------------| 
 D|-----7-7-6-6-2-4-4-4--7-7-7-7-7-----------------------------------| 
 A|-----7-7-6-6-2-4-4-4--5-5-5-5-5-----------------------------------| 
 E|-----5-5-4-4-0-2-2-2----------------------------------------------| 
  
  Intro: 

 e|------------------------------------------------------------------------------------------------| 
 B|------------------------------------------------------------------------------------------------| 
 G|----------------7-7-7-7-7-7--------------------------------------------------7-7-7-7------------| 
 D|---4-4-4-4-4-4--7-7-7-7-7-7--11-11-11-11-11-----/-12-/-9-9-9-9-9--4-4-4-4-4--7-7-7-7--7-7-7-7---| 
 A|---4-4-4-4-4-4--5-5-5-5-5-5--11-11-11-11-11-----/-12-/-9-9-9-9-9--4-4-4-4-4--5-5-5-5--7-7-7-7---| 
 E|---2-2-2-2-2-2----------------9--9--9--9--9-----/-10-/-7-7-7-7-7--2-2-2-2-2-----------5-5-5-5---| 

  Verso 2:Primeira parte no baixo  

 G|--------------------------------|-------------------------------| 
 D|--------------------------------|-------------------------------| 
 A|--------5555-5---------2222-4-2-|--------5555-5-00000000000000--| 
 E|-2222-2--------0000-0-----------|-2222-2------------------------| 

 G|--------------------------------|-------------------------------| 
 D|--------------------------------|-------------------------------| 
 A|--------5555-5---------2222-4-2-|--------5555-5-00000000000000--| 
 E|-2222-2--------0000-0-----------|-2222-2------------------------| 

  Segunda parte entra uma guitarrinha 
  (Palm mute) 

 e|------------------------------------------------------------------| 
 B|------------------------------------------------------------------| 
 G|--------------------7-7-7-7-7-7-----------------------------------| 
 D|---4-4-4-4-4-4------7-7-7-7-7-7------7-7-7-7-7-7------9-9-9-9-9-9-| 
 A|---4-4-4-4-4-4------5-5-5-5-5-5------7-7-7-7-7-7------9-9-9-9-9-9-| 
 E|---2-2-2-2-2-2-----------------------5-5-5-5-5-5------7-7-7-7-7-7-| 

 e|------------------------------------------------------------------| 
 B|------------------------------------------------------------------| 
 G|--------------------7-7-7-7-7-7-----------------------------------| 
 D|---4-4-4-4-4-4------7-7-7-7-7-7------7~~--------------------------| 
 A|---4-4-4-4-4-4------5-5-5-5-5-5------7~~--------------------------| 
 E|---2-2-2-2-2-2-----------------------5~~--------------------------| 

  Refrão: 
  
   _______________________________4x_________________________________ 
 e|------------------------------------------------------------------| 
 B|------------------------------------------------------------------| 
 G|----------------------7-7-7-7-7-----------------------------------| 
 D|-----7-7-6-6-2-4-4-4--7-7-7-7-7-----------------------------------| 
 A|-----7-7-6-6-2-4-4-4--5-5-5-5-5-----------------------------------| 
 E|-----5-5-4-4-0-2-2-2----------------------------------------------| 

  Interlude: 

 e|--------------------|--------------------| 
 B|--------------------|--------------------| 
 G|--------------------|--------------------| 
 D|-6-6-6-6---7-7-7-7--|-6-6-6-6---7-7-7-7--| 
 A|-6-6-6-6---7-7-7-7--|-6-6-6-6---7-7-7-7--| 
 E|-4-4-4-4---5-5-5-5--|-4-4-4-4---5-5-5-5--|  

  Pós Refrão: 
   ____________________2x___________________ 
 e|-----------------------------------------| 
 B|-----------------------------------------| 
 G|-----------------------7-7-7-7-----------| 
 D|---4-4-4-4---6-6-6-6---7-7-7-7-----------| 
 A|---4-4-4-4---6-6-6-6---5-5-5-5-----------| 
 E|---2-2-2-2---4-4-4-4---------------------| 

  Refrão: 

   _____________________________4x________________________________ 
 e|---------------------------------------------------------------| 
 B|---------------------------------------------------------------| 
 G|----------------------7-7-7-7-7--------------------------------| 
 D|-----7-7-6-6-2-4-4-4--7-7-7-7-7--------------------------------| 
 A|-----7-7-6-6-2-4-4-4--5-5-5-5-5--------------------------------| 
 E|-----5-5-4-4-0-2-2-2-------------------------------------------| 

  Intro: 

 e|------------------------------------------------------------------------------------------------| 
 B|------------------------------------------------------------------------------------------------| 
 G|----------------7-7-7-7-7-7--------------------------------------------------7-7-7-7------------| 
 D|---4-4-4-4-4-4--7-7-7-7-7-7--11-11-11-11-11-----/-12-/-9-9-9-9-9--4-4-4-4-4--7-7-7-7--7-7-7-7---| 
 A|---4-4-4-4-4-4--5-5-5-5-5-5--11-11-11-11-11-----/-12-/-9-9-9-9-9--4-4-4-4-4--5-5-5-5--7-7-7-7---| 
 E|---2-2-2-2-2-2----------------9--9--9--9--9-----/-10-/-7-7-7-7-7--2-2-2-2-2-----------5-5-5-5---| 
	  

Search Paypal
auto scroll beats size up size down change color hide chords drawings
tab show chords e-chords YouTube Clip e-chords hide all tabs e-chords go to top tab