Blink 182

home > Blink 182

Going away to college Tab

Blink 182

Difficulty: AdvancedAdvanced

by vejota

tuner correct add songbook print version text version save to e-mail
chordsukulelecavacokeyboardtabbassdrummharmonicsflute Guitar Pro
chords

Going away to college

Year: 1999 - Album: Enema of the State

  		InTrO: 
  B          F#
G-4-4--4-4-4-----------4-
D-4-4--4-4-4-4--4-4--4-4-
A-2-2--2-2-2-4--4-4--4-2-
E------------2--2-2--2---

Riff A:
G-|o----------8-----------8-----------8-------------o|--
D-|o----9-----------9-----------9-----------9-----9-o|9-
A-|-------------------------7-7---7-7---9-9---9-9----|9-
E-|-7-7---7-7---7-7---7-7----------------------------|7-

Verse: 
  B         E       F#
G-----------9-9-9-9-11-11-11-11----
D-9--9-9-9--9-9-9-9-11-11-11-11----
A-9--9-9-9--7-7-7-7--9--9--9--9----
E-7--7-7-7-------------------------

Chorus: 
   Eb                E               B               F#*                 x3
G--8-8-8-8-8-8-8-8-8/9-9-9-9-9-9-9-9-4-4-4-4-4-4-4-4------------------
D--8-8-8-8-8-8-8-8-8/9-9-9-9-9-9-9-9-4-4-4-4-4-4-4-4-4-4-4-4-4-4-4-4--
A--6-6-6-6-6-6-6-6-6/7-7-7-7-7-7-7-7-2-2-2-2-2-2-2-2-4-4-4-4-4-4-4-4--
E----------------------------------------------------2-2-2-2-2-2-2-2--


   Eb                E               B               F#(type 2)**

B----------------------------------------------------7-7-7-7-7-7-7-7--
G--8-8-8-8-8-8-8-8-8/9-9-9-9-9-9-9-9-4-4-4-4-4-4-4-4-6-6-6-6-6-6-6-6--
D--8-8-8-8-8-8-8-8-8/9-9-9-9-9-9-9-9-4-4-4-4-4-4-4-4-4-4-4-4-4-4-4-4--
A--6-6-6-6-6-6-6-6-6/7-7-7-7-7-7-7-7-2-2-2-2-2-2-2-2-4-4-4-4-4-4-4-4--


Riff B:  
G------8-----8-----8-----8-----8-----8-----8-------
D------------------------------------------------9-
A--------------------------7-7---7-7---9-9---9-9---
E--7-7---7-7---7-7---7-7---------------------------

_______________________________________
Vejota p/ Emmanuel, Guilherme, Marjorie 
e a minha cocota Adriane B. C. amo vcs!!
	  

Full key step upFull key step up
Half key step upHalf key step up
Half key step downHalf key step down
Full key step downFull key step down
Search Paypal
auto scroll beats size up size down change color hide chords drawings
tab show chords e-chords YouTube Clip e-chords hide all tabs e-chords go to top tab