Blink 182

home > Blink 182

Feeling this (Base) Tab

Blink 182

Difficulty: IntermediateIntermediate

by Tom+punk

tuner correct add songbook print version text version save to e-mail
chordsukulelecavacokeyboardtabbassdrumsharmonicsflute Guitar Pro
chords

Feeling this (Base)

  		Intro: 
E|----------------------------- 
B|----------------------------- 
G|----------------------------- 
D|--------------------6-------- 
A|--7/117-7-7-7---7-----7----- 
E|--------------0-------------- 
 
I got to regret right now (I'm feeling this!) 
The air is so cold and null (I'm feeling this!) 
Let me go in her room (I'm feeling this!) 
I love all the things you do (I'm feeling this!) 
Show me the way to bed (I'm feeling this!) 
Show me the way you move (I'm feeling this!) 
How can you be such a blur? (I'm feeling this!) 
I love all the things you do! (I'm feeling this!) 
 
 
 
E|----------------------------| 
B|----------------------------| 
G|-9999--44--6666-------------| 
D|-9999--44--6666--77---------| 
A|-7777--22--4444--77---------| 
E|-----------------55---------| 
 
Fate fell short this time 
your smile fades in the summer 
  
place your hand in mine 
I'll leave when I wanna 
 
 
(apenas batera) 
This place was never the same again 
after you came and went 
how can you say you meant anything different 
to anyone 
standing alone on the street 
with a cigarette 
on the first night  
 
E|-----------------------------| 
B|--------------------------------| 
G|-9999--4444--6666---------------| 
D|-9999--4444--6666--7777---------| 
A|-7777--2222--4444--7777---------| 
E|-------------------5555---------|we met 
 
 
 
Look to the past and remember her smile 
and maybe tonight I can breathe for a while 
I'm not in the seat 
I think i'm falling asleep 
but then its all I could need cuz i'll always be dreaming of you 
 
 
 
Fate fell short this time 
your smile fades in the summer 
place your hand in mine 
I'll leave when I wanna 
 
 
 

	  

Search Paypal
auto scroll beats size up size down change color hide chords drawings
tab show chords e-chords YouTube Clip e-chords hide all tabs e-chords go to top tab