Blink 182

home > Blink 182

Dupwemmd Tab

Blink 182

Difficulty: nolevelnolevel

by luciano%29sk8%28

tuner correct add songbook print version text version save to e-mail
chordsukulelecavacokeyboardtabbassdrumsharmonicsflute Guitar Pro
chords

Dupwemmd

  		Riff A
E|---------------------------------------- 
B|---------------------------------------- 
G|---------------------------------------- 
D|---6-6h7p6-----4------6-6h7p6-----4----- 
A|---------------------------------------- 
E|-0---------7-5---5--0---------7-5------- 
 
Riff A (cont'd) 
E|---------------------------------------- 
B|---------------------------------------- 
G|---------------------------------------- 
D|---6-6h7p6-----4------6-6h7p6--9-------- 
A|-0------------------0------------0-9---- 
E|-----------7-5---5---------------------- 
 
Riff B 
E|---------------------------------------- 
B|-9p7p0-9p7p0--7p5p0-7-7p5p0--9p7p0-9p7p0 
G|---------------------------------------- 
D|---------------------------------------- 
A|---------------------------------------- 
E|---------------------------------------- 
 
Riff B(cont'd)
E|---------------------------------------- 
B|-10p9p0-10p9p0-------------------------- 
G|---------------------------------------- 
D|---------------------------------------- 
A|---------------------------------------- 
E|---------------------------------------- 
 
Riff C(palm muted) 
E|----------------------------------------- 
B|----------------------------------------- 
G|----------------------------------------- 
D|-2-22-22-22--99-99-9--2-22-22-22--99-99-9 
A|-2-22-22-22--99-99-9--2-22-22-22--99-99-9 
E|-0-00-00-00--77-77-7--0-00-00-00--77-77-7 
 
Riff C(cont'd) 
E|----------------------------------------- 
B|----------------------------------------- 
G|-2-22-22-22-----------2-22-22-22--------- 
D|-2-22-22-22--99-99-9--2-22-22-22--99-99-9 
A|-0-00-00-00--99-99-9--0-00-00-00--99-99-9 
E|-------------77-77-7--------------77-77-7 
 
Riff D 
E|---------------------------------------- 
B|---------------------------------------- 
G|---------------------------------------- 
D|-22-2-22-2--99-9-99-9--77-7-77-7-99-9-99 
A|-22-2-22-2--99-9-99-9--77-7-77-7-99-9-99 
E|-00-0-00-0--77-7-77-7--55-5-55-5-77-7-77 
 
Solo/Interlude Thingy(W/half ass palm mute) 
E|-------------------------------------------- 
B|-9-7-0-5-0--7-5-0-5-0--9-7-0-5-0--10-9-0-5-7 
G|-------------------------------------------- 
D|-------------------------------------------- 
A|-------------------------------------------- 
E|-------------------------------------------- 
	  

Search Paypal
auto scroll beats size up size down change color hide chords drawings
tab show chords e-chords YouTube Clip e-chords hide all tabs e-chords go to top tab