Blink 182

home > Blink 182

Don't Leave me (correta) Tab

Blink 182

Difficulty: nolevelnolevel

by loucianinhum

tuner correct add songbook print version text version save to e-mail
chordsukulelecavacokeyboardtabbassdrumsharmonicsflute Guitar Pro
chords

Don't Leave me (correta)

  		Intro (ouça a musica pra pegar a batida correta): 
 
e|------------------------------| 
B|------------------------------| 
G|-2-----7--4--7-9-------7--4--7| 
D|-2--2--7--4--7-9----2--7--4--7| 
A|-0--2--5--2--5-7----2--5--2--5| 
E|----0---------------0---------| 
 
Verso: 
 
e|-------------------------| 
B|-------------------------| 
G|-2--7--4--7--2--7--4--7-9| 
D|-2--7--4--7--2--7--4--7-9| 
A|-0--5--2--5--0--5--2--5-7| 
E|-------------------------| 
 
Refrao: 
 
e|-----------| 
B|-----------| 
G|-2--4--7--9| 
D|-2--4--5--9| (3x) 
A|-0--2--5--7| 
E|-----------| 
 
e|--------| 
B|--------| 
G|-2--4--7| 
D|-2--4--5| 
A|-0--2--5| 
E|--------| 
 
(Repete intro) 
 
(Verse) 
 
 
e|------| 
B|------| 
G|-2---7| 
D|-2-2-5|(4x) 
A|-0-2-5| 
E|---0--| 
 
(one more i'm feeling...) 
 
e|------| 
B|------| 
G|-2---7| 
D|-2-2-5|(4x) 
A|-0-2-5| 
E|---0--| 
 
(Refrão) 
 
 
e|----------------------------------------------------------------| 
B|----------------------------------------------------------------| 
G|-2------------7--------4------------7-----9-----------------2---| 
D|-2------------7--------4------------7-----7-----------------2---| 
A|-0------------5--------2------------5-----7-----------------0---| 
E|----------------------------------------------------------------| 
(Don't Leve me all alone just drop me off at home and i'll be fine) 
 
Mony s2 

	  

Search Paypal
auto scroll beats size up size down change color hide chords drawings
tab show chords e-chords YouTube Clip e-chords hide all tabs e-chords go to top tab