Blink 182

home > Blink 182

Dogs Eating Dogs Tab

Blink 182

Difficulty: ExpertExpert

by terr%5Fschmitz

tuner correct add songbook print version text version save to e-mail
chordsukulelecavacokeyboardtabbassdrumsharmonicsflute Guitar Pro
chords

Dogs Eating Dogs

  		 

 Intro 
Guitar 1 
e|---------------------------------------------------------------|   
B|---------------------------------------------------------------|   
G|5-----4------5-------7------5------4------5------4-------------|   
D|x-----x------x-------x------x------x------x------x-------------| 
A|3-----2------2-------5------3------2------3------2-------------|   
E|---------------------------------------------------------------|  
Guitar 2                                                             X4 
e|---------------------------------------------------------------| 
B|---------------------------------------------------------------| 
G|--------------------------------5-5-5-5-5-5-5-5----------------|     
D|7-7-7-7-7-7-7-7-7-7-7-7-7-7-7-7-5-5-5-5-5-5-5-5-5-5-5-5-5-5-5-5| 
A|7-7-7-7-7-7-7-7-7-7-7-7-7-7-7-7-3-3-3-3-3-3-3-3-5-5-5-5-5-5-5-5| 
E|5-5-5-5-5-5-5-5-5-5-5-5-5-5-5-5-----------------3-3-3-3-3-3-3-3| 


 Verse 
  (Hold 1st note) 
e|---------------------------------------------------------------| 
B|---------------------------------------------------------------| 
G|--------------------------------5-5-5-5-5-5-5-5----------------| 
D|7-------------------------------5-5-5-5-5-5-5-5-5-5-5-5-5-5-5-5| 
A|7-------------------------------3-3-3-3-3-3-3-3-5-5-5-5-5-5-5-5| 
E|5-----------------------------------------------3-3-3-3-3-3-3-3| 

e|---------------------------------------------------------------| 
B|---------------------------------------------------------------| 
G|--------------------------------5-5-5-5-5-5-5-5----------------| 
D|7-7-7-7-7-7-7-7-7-7-7-7-7-7-7-7-5-5-5-5-5-5-5-5-5-5-5-5-5-5-5-5|X3 
A|7-7-7-7-7-7-7-7-7-7-7-7-7-7-7-7-3-3-3-3-3-3-3-3-5-5-5-5-5-5-5-5| 
E|5-5-5-5-5-5-5-5-5-5-5-5-5-5-5-5-----------------3-3-3-3-3-3-3-3| 

e|---------------------------------------------------------------| 
B|---------------------------------------------------------------| 
G|---------------------------------------------------------------| 
D|--------------------------------5-5-5-5-5-5-5-5----------------|X2 
A|7-7-7-7-7-7-7-7-7-7-7-7-7-7-7-7-3-3-3-3-3-3-3-3-5-5-5-5-5-5-5-5| 
E|5-5-5-5-5-5-5-5-5-5-5-5-5-5-5-5-----------------3-3-3-3-3-3-3-3| 
  x x x x x x x x x x x x x x x x x x x x x x x x x x x x x x x x  

 Chorus 
e|----------------------------------------------------------------------------| 
B|----------------------------------------------------------------------------| 
G|5---------------------------------------------------------------------------| 
D|5-----3------7-7-7-7-7-7-7-7-5-5-5-5-5-5-5-5-3-3-3-3-3-3-3-3-3-3-3-3-3-3-3-3|X2 
A|3-----3------7-7-7-7-7-7-7-7-5-5-5-5-5-5-5-5-3-3-3-3-3-3-3-3-3-3-3-3-3-3-3-3| 
E|------1------5-5-5-5-5-5-5-5-3-3-3-3-3-3-3-3-1-1-1-1-1-1-1-1-1-1-1-1-1-1-1-1| 

Guitar 1 
e|---------------------------------------------------------------|   
B|---------------------------------------------------------------|   
G|5-----4------5-------7------5------4------5------4-------------|   
D|x-----x------x-------x------x------x------x------x-------------| 
A|3-----2------2-------5------3------2------3------2-------------|   
E|---------------------------------------------------------------|  
Guitar 2                                                           X2 
e|---------------------------------------------------------------| 
B|---------------------------------------------------------------| 
G|--------------------------------5-5-5-5-5-5-5-5----------------|     
D|7-7-7-7-7-7-7-7-7-7-7-7-7-7-7-7-5-5-5-5-5-5-5-5-5-5-5-5-5-5-5-5| 
A|7-7-7-7-7-7-7-7-7-7-7-7-7-7-7-7-3-3-3-3-3-3-3-3-5-5-5-5-5-5-5-5| 
E|5-5-5-5-5-5-5-5-5-5-5-5-5-5-5-5-----------------3-3-3-3-3-3-3-3| 

e|---------------------------------------------------------------| 
B|---------------------------------------------------------------| 
G|--------------------------------5-5-5-5-5-5-5-5----------------| 
D|7-7-7-7-7-7-7-7-7-7-7-7-7-7-7-7-5-5-5-5-5-5-5-5-5-5-5-5-5-5-5-5|X2 
A|7-7-7-7-7-7-7-7-7-7-7-7-7-7-7-7-3-3-3-3-3-3-3-3-5-5-5-5-5-5-5-5| 
E|5-5-5-5-5-5-5-5-5-5-5-5-5-5-5-5-----------------3-3-3-3-3-3-3-3| 

e|---------------------------------------------------------------| 
B|---------------------------------------------------------------| 
G|---------------------------------------------------------------| 
D|--------------------------------5-5-5-5-5-5-5-5----------------|X2 
A|7-7-7-7-7-7-7-7-7-7-7-7-7-7-7-7-3-3-3-3-3-3-3-3-5-5-5-5-5-5-5-5| 
E|5-5-5-5-5-5-5-5-5-5-5-5-5-5-5-5-----------------3-3-3-3-3-3-3-3| 
  x x x x x x x x x x x x x x x x x x x x x x x x x x x x x x x x  

Chorus 
e|----------------------------------------------------------------------------| 
B|----------------------------------------------------------------------------| 
G|5---------------------------------------------------------------------------| 
D|5-----3------7-7-7-7-7-7-7-7-5-5-5-5-5-5-5-5-3-3-3-3-3-3-3-3-3-3-3-3-3-3-3-3|X2 
A|3-----3------7-7-7-7-7-7-7-7-5-5-5-5-5-5-5-5-3-3-3-3-3-3-3-3-3-3-3-3-3-3-3-3| 
E|------1------5-5-5-5-5-5-5-5-3-3-3-3-3-3-3-3-1-1-1-1-1-1-1-1-1-1-1-1-1-1-1-1| 

 Bridge 
 Guitar comes in at 2:13 
e|----------------------------------------------------------------------| 
B|----------------------------------------------------------------------| 
G|-------------------------------4--------4------4------4-------4------4| 
D|-----------------------------4---4----4---4--4------4---4---4---4--4--| 
A|2---3-----3--2--3----------2----------------------2-------------------| 
E|------------------------------------3---------------------3-----------| 

e|---------------------| 
B|---------------------| 
G|----4--------4-----4-| 
D|--4---4----4---4--4--| 
A|2--------------------| 
E|---------3-----------| 

  
e|---------------------------------------------------------------| 
B|---------------------------------------------------------------| 
G|---------------------------------------------------------------| 
D|--------------------------------5-5-5-5-5-5-5-5----------------|X2 
A|7-7-7-7-7-7-7-7-7-7-7-7-7-7-7-7-3-3-3-3-3-3-3-3-5-5-5-5-5-5-5-5| 
E|5-5-5-5-5-5-5-5-5-5-5-5-5-5-5-5-----------------3-3-3-3-3-3-3-3| 
  x x x x x x x x x x x x x x x x x x x x x x x x x x x x x x x x  

Chorus 
e|----------------------------------------------------------------------------| 
B|----------------------------------------------------------------------------| 
G|5---------------------------------------------------------------------------| 
D|5-----3------7-7-7-7-7-7-7-7-5-5-5-5-5-5-5-5-3-3-3-3-3-3-3-3-3-3-3-3-3-3-3-3|X2 
A|3-----3------7-7-7-7-7-7-7-7-5-5-5-5-5-5-5-5-3-3-3-3-3-3-3-3-3-3-3-3-3-3-3-3| 
E|------1------5-5-5-5-5-5-5-5-3-3-3-3-3-3-3-3-1-1-1-1-1-1-1-1-1-1-1-1-1-1-1-1| 

Outro 
Guitar 1 
e|---------------------------------------------------------------|   
B|---------------------------------------------------------------|   
G|5-----4------5-------7------5------4------5------4-------------|   
D|x-----x------x-------x------x------x------x------x-------------| 
A|3-----2------2-------5------3------2------3------2-------------|   
E|---------------------------------------------------------------|  
Guitar 2                                                              
e|---------------------------------------------------------------| 
B|---------------------------------------------------------------| 
G|--------------------------------5-5-5-5-5-5-5-5----------------|     
D|7-7-7-7-7-7-7-7-7-7-7-7-7-7-7-7-5-5-5-5-5-5-5-5-5-5-5-5-5-5-5-5| 
A|7-7-7-7-7-7-7-7-7-7-7-7-7-7-7-7-3-3-3-3-3-3-3-3-5-5-5-5-5-5-5-5| 
E|5-5-5-5-5-5-5-5-5-5-5-5-5-5-5-5-----------------3-3-3-3-3-3-3-3| 

Guitar 1 
e|--------------------------------------------------|   
B|--------------------------------------------------|   
G|5-----4------5-------7------5------4------5------3|   
D|x-----x------x-------x------x------x------x------x| 
A|3-----2------2-------5------3------2------3------1|   
E|--------------------------------------------------|  
Guitar 2  
e|--------------------------------------------------| 
B|--------------------------------------------------| 
G|--------------------------------5-5-5-5-5-5-5-5---| 
D|7-7-7-7-7-7-7-7-7-7-7-7-7-7-7-7-5-5-5-5-5-5-5-5-5-| 
A|7-7-7-7-7-7-7-7-7-7-7-7-7-7-7-7-3-3-3-3-3-3-3-3-5-| 
E|5-5-5-5-5-5-5-5-5-5-5-5-5-5-5-5-----------------3-| 

 
	  

Search Paypal
auto scroll beats size up size down change color hide chords drawings
tab show chords e-chords YouTube Clip e-chords hide all tabs e-chords go to top tab