Blink 182

home > Blink 182

Dammit (lead) Tab

Blink 182

Difficulty: ExpertExpert

by stogie182

tuner correct add songbook print version text version save to e-mail
chordsukulelecavacokeyboardtabbassdrumsharmonicsflute Guitar Pro
chords

Dammit (lead)

  		For those of you who are real lead guitarist and like blink 182, and you already have a rhythm guitarist, 
hears the lead way yeah can play, just play it the same pace as you do the intro. 
 
intro 
D --------2---------2---------2-----22--- 
A 33--55---------55--------55-----------5   (4X) 
E -----------33--------55-------11------ 
 
Chorus(1) 
D --------4---------4---------4----44--- 
A 55--77---------77--------77----------7    (2X) 
E -----------55--------77--------33----- 
 
Chorus(2) 
D --------6---------6----------6----66--- 
A 77--99--------99---------99-----------9    (2X) 
E ----------77---------99--------55------ 
 
intro 
D --------2---------2---------2-----22--- 
A 33--55---------55--------55-----------5   (2X) 
E -----------33--------55-------11------ 
 
 
Chorus(1) 
D --------4---------4---------4----44--- 
A 55--77---------77--------77----------7    (2X) 
E -----------55--------77--------33----- 
 
Chorus(2) 
D --------6---------6----------6----66--- 
A 77--99--------99---------99-----------9    (2X) 
E ----------77---------99--------55------ 
 
 
C                              G 
 And it will happen once again, I'll turn her  
               A                          F 
 into a friend, some one that understands, and  
                           C 
 sticks to the master plan. But when everybody  
         G                                  A 
 is gone, and you've been here way too long, to  
                      F 
 face this on our own, well i guess this is growing up. 
 
 
intro 
D --------2---------2---------2-----22--- 
A 33--55---------55--------55-----------5   (2X) 
E -----------33--------55-------11------ 
 
 
Chorus(1) 
D --------4---------4---------4----44--- 
A 55--77---------77--------77----------7    (2X) 
E -----------55--------77--------33----- 
 
Chorus(2) 
D --------6---------6----------6----66--- 
A 77--99--------99---------99-----------9    (2X) 
E ----------77---------99--------55------ 
 
 
C                              G 
 And it will happen once again, I'll turn her  
               A                          F 
 into a friend, some one that understands, and  
                           C 
 sticks to the master plan. But when everybody  
         G                                  A 
 is gone, and you've been here way too long, to  
                      F 
 face this on our own, well i guess this is growing up. 
 
interlude 
B --------3--5----------3--5----3--5- 
G ------5------3------5------5------5-  (2X) 
D ----5-------------5----------------- 
A --5-------------5------------------- 
 
 
intro 
D --------2---------2---------2-----22--- 
A 33--55---------55--------55-----------5   (4X) 
E -----------33--------55-------11------ 
 

	  

Full key step upFull key step up
Half key step upHalf key step up
Half key step downHalf key step down
Full key step downFull key step down
Search Paypal
auto scroll beats size up size down change color hide chords drawings
tab show chords e-chords YouTube Clip e-chords hide all tabs e-chords go to top tab