Blink 182

home > Blink 182

Carousel (o original) Tab

Blink 182

Difficulty: ExpertExpert

by lslpunk182

tuner correct add songbook print version text version save to e-mail
chordsukulelecavacokeyboardtabbassdrumsharmonicsflute Guitar Pro
chords

Carousel (o original)

  		essa musica eu sofri pra tira ela mas ela tar certinho sem tira e nem por 
bom mas mesmo assim si alguem tive duvida  
me add [email protected] 
 
 
 
essa eh a intro feita nu baxo 
intro/solo  
g-11-11-12-14-12-11----6-6-7-9-7-6----9-9-11-12-11-9-10  
d0-----------------11/7-----------7/10-----------------  
a------------------------------------------------------  
e------------------------------------------------------  
  
g-77-77-7~-x-11-11-11-11-x-9-9-9-9-x-11-11-11-11-x-7-7-7-7  
d5--5--5-~-x--0--0--0--0-x-7-7-7-7-x--9--9--9--9-x-5-5-5-5  
a---------------------------------------------------------  
e---------------------------------------------------------  
 
ai o primeira parte verso na guita 
 
 
G|-7-------7-------|-7---7------------------------------------------------- 
D|-7-7-9-5-7-7-9-5-|-7---7------------------------------------------------- 
A|-5-7-9-5-5-7-9-5-|-5-4-5-4-5-5-7-5-4-5-4-5-4-5-4-5-4-5-7-5-4-2-0--------- 
E|---5-7-3---5-7-3-|-----------------------------------------------3------- 
 
o solim ki o tom faz depois desse verso 
D|---------------------------------------------------0-0-4-0-0-7-5-4-0----- 
A|-9-9-9-10-9-7-9-9-9-10-9-12-12-10-9-7-9-9-9-10-9-7----------------------- 
 
eu naum sei certo qual o ritmo mas escutem a musik ki vcs pegam e facim 
   Verso:                 
G|-7---------         
D|-7-7-7-5---         
A|-5-7-7-5---         
E|---5-9-3---         
 
Refrao 
G|---7-5------- 
D|---7-5-7-5--- 
A|---5-7-7-5--- 
E|-------5-3--- 
 
i esse eh u solim ki o tom faz depois do refrao 
D|---4-5-7-5-4------------------------------------------------------------- 
A|-5-----------5---4-5-7-5-4-----6-7-9-7-6-----2-3-5-3-2------------------- 
E|---------------5-----------5-7-----------7-3-----------3----------------- 
 
letra da musica: 
 
Talk to you every now and then  
 
I never felt so alone again  
 
Stop and think at a wishing well  
 
Thought sends me on a carousel  
 
Here I am standing on my own  
 
Not a motion from the telephone  
  
I know not a reason why  
 
Solitude's a reason to die  
 
 
REfrao 
Just you wait and see  
 
How school life is a  
  
It is a woken dream  
  
Are you feeling alone?  
     
I guess it's just another 
    
I guess it's just another  
     
I guess it's just another  
 
Night alone  
			 
 
 
       
Now as I walk down the street  
           
I need a job just to sleep in sheets  
           
Find food every once in a while  
            
But not enough to purchase a smile  
              
A tank of gas is a treasure to me  
              
I now know that nothin' is free  
          
Talk to you every now and then  
               
Never felt so alone again  
 
__________________________________________ 
essa musik oferece a tdos fanaticos por blink hihi 
ki nem eu 
e tbem pro amor da minha vida SAMANTA ti adollo viu!!! 
 

	  

Search Paypal
auto scroll beats size up size down change color hide chords drawings
tab show chords e-chords YouTube Clip e-chords hide all tabs e-chords go to top tab