Blink 182

home > Blink 182

carousel (live version) Tab

Blink 182

Difficulty: nolevelnolevel

by funkbassist%5F4

tuner correct add songbook print version text version save to e-mail
chordsukulelecavacokeyboardtabbassdrumsharmonicsflute Guitar Pro
chords

carousel (live version)

  		intro/solo 
g-11-11-12-14-12-11----6-6-7-9-7-6----9-9-11-12-11-9-10 
d0-----------------11/7-----------7/10----------------- 
a------------------------------------------------------ 
e------------------------------------------------------ 
 
g-77-77-7~-x-11-11-11-11-x-9-9-9-9-x-11-11-11-11-x-7-7-7-7 
d5--5--5-~-x--0--0--0--0-x-7-7-7-7-x--9--9--9--9-x-5-5-5-5 
a--------------------------------------------------------- 
e--------------------------------------------------------- 
 
bridge 
g--------------------------------- 
d--------------------------------- 
a55555555------------------------- 
e--------5555555577777777711111111 
 
1st guitar solo 
gx-11-11-11-11-x-9-9-9-9-x-11-11-11-11-x-7-7-7-7 
dx--0--0--0--0-x-7-7-7-7-x--9--9--9--9-x-5-5-5-5 
a----------------------------------------------- 
e----------------------------------------------- 
 
verse 
g--------------------------------- 
d--------------------------------- 
a55555555------------------------- 
e--------5555555577777777111111111 
 
Chorus 
g--------------------------------- 
d--------------------------------- 
a55555555------------------------- 
e--------5555555577777777111111111 
 
2nd guitar solo 
gx-11-11-11-11-x-9-9-9-9-x-11-11-11-11-x-7-7-7-7 
dx--0--0--0--0-x-7-7-7-7-x--9--9--9--9-x-5-5-5-5 
a----------------------------------------------- 
e----------------------------------------------- 
 
verse 
Chorus 
3rd guitar solo (bass' verse) 
Chorus 

	  

Search Paypal
auto scroll beats size up size down change color hide chords drawings
tab show chords e-chords YouTube Clip e-chords hide all tabs e-chords go to top tab