Blink 182

home > Blink 182

Carousei Tab

Blink 182

Difficulty: AdvancedAdvanced

by jhon%5Ffernandes

tuner correct add songbook print version text version save to e-mail
chordsukulelecavacokeyboardtabbassdrumsharmonicsflute Guitar Pro
chords

Carousei

  		Carousel   -   Blink 182    
 
E|---------------------------------------------------------------------| 
B|---------------------------------------------------------------------| 
G|---------------------------------------------------------------------| 
D|-----4-4-5-7-5-4-----------------------------------------------------| 
A|---5-------------5---4-4-5-7-5-4-----7-7-9-10-9-7-9-------5-----5-5--| 
E|-------------------5-------------5/7------------------3-3---3-3--3---| 
 
E|--------------------------------------------------------------------| 
B|--------------------------------------------------------------------| 
G|--------------------------------------------------------------------| 
D|-----4-4-5-7-5-4----------------------------------------------------| 
A|-----------------5---4-4-5-7-5-4-----7-7-9-10-9-7-9---5-5-5-5-5-5---| 
E|-------------------5-------------5/7------------------3-3-3-3-3-3---| 
 
 
curtam!!!! 

	  

Search Paypal
auto scroll beats size up size down change color hide chords drawings
tab show chords e-chords YouTube Clip e-chords hide all tabs e-chords go to top tab