Blink 182

home > Blink 182

Anthen (part 2) Tab

Blink 182

Difficulty: nolevelnolevel

by Tom+punk

tuner correct add songbook print version text version save to e-mail
chordsukulelecavacokeyboardtabbassdrumsharmonicsflute Guitar Pro
chords

Anthen (part 2)

  		Intro (limpa)  
-3---3---1---1---0---0---1---1-----------------------  
---1---1---1---1---1---1---1---1---------------------  
-----------------------------------------------------  
-----------------------------------------------------  
-----------------------------------------------------  
-----------------------------------------------------  
 
Intro   
-------------------------------------------  
-------------------------------------------  
----5555----7777----2222-------------------  
----5555----7777----2222----3333-----------  
----3333----5555------------3333-----------  
----------------------------1111----------- 
 
Verse:  
 
---------------------------------------  
---------------------------------------  
----5555--------2222-------------------  
----5555--------2222----3333-----------  
----3333----------------3333-----------   ( 4x ) 
------------------------1111----------- 
 
Break bass: 
A|---7-----5-----3-| 
E|-5---5-3---3-1---| 
 
Verse: 
 
---------------------------------------  
---------------------------------------  
----5555--------2222-------------------  
----5555--------2222----3333-----------  
----3333----------------3333-----------   ( 4x ) 
------------------------1111----------- 
 
Refrão: 
 
----------------------------------------  
----------------------------------------  
----9999------------5555----------------  
----9999----3333----5555----5555--------  
----7777----3333----3333----5555--------   ( 4x ) 
------------1111------------3333-------- 
 
 
  C              A        F     C            A      F        
G|-9-9-10-9-5-7-7-9-9-10-9-5-7-7-9-9-10-9-5-7-7-10-9-5~-| 
D|----------------------------------------------------~-| 
A|-7-7--8-7-3-5-5-7-7--8-7-3-5-5-7-7--8-7-3-5-5--8-7-3~-| 
 
 
Verse: 
 
---------------------------------------  
---------------------------------------  
----5555--------2222-------------------  
----5555--------2222----3333-----------  
----3333----------------3333-----------   ( 4x ) 
------------------------1111----------- 
 
 
Break bass: 
A|---7-----5-----3-| 
E|-5---5-3---3-1---| 
 
Refrão: 
 
----------------------------------------  
----------------------------------------  
----9999------------5555----------------  
----9999----3333----5555----5555--------  
----7777----3333----3333----5555--------   ( 4x ) 
------------1111------------3333-------- 
 
Bass: C A F  2x 
 
Verse: (tocando de vagar) 
 
---------------------------------------  
---------------------------------------  
----5555--------2222-------------------  
----5555--------2222----3333-----------  
----3333----------------3333-----------   ( 4x ) 
------------------------1111----------- 
 
 
Refrão: 
 
----------------------------------------  
----------------------------------------  
----9999------------5555----------------  
----9999----3333----5555----5555--------  
----7777----3333----3333----5555--------   ( 4x ) 
------------1111------------3333-------- 
 
 
Intro (limpa)  
-3---3---1---1---0---0---1---1-----------------------  
---1---1---1---1---1---1---1---1---------------------  
-----------------------------------------------------  
-----------------------------------------------------  
-----------------------------------------------------  
-----------------------------------------------------  

	  

Full key step upFull key step up
Half key step upHalf key step up
Half key step downHalf key step down
Full key step downFull key step down
Search Paypal
auto scroll beats size up size down change color hide chords drawings
tab show chords e-chords YouTube Clip e-chords hide all tabs e-chords go to top tab