Blink 182

home > Blink 182

Anthem part 2 Tab

Blink 182

Difficulty: ExpertExpert

by Tom+punk

tuner correct add songbook print version text version save to e-mail
chordsukulelecavacokeyboardtabbassdrumsharmonicsflute Guitar Pro
chords

Anthem part 2

  		exibir solos e dicasIntro: 
 
Riff 1 
  C 
G|-12----12----10----10----9----9----10----10-----| 
D|----10----10----10----10---10---10----10----10--| (x3) 
 
C   D   A   Fii ( + riff 1 ) (2X) 
 
  C               D                A               F          (+ Riff 1 ) 
D|-----2p3p2-----2-----2p3p2-----2------2p3p2-----2-----0-0-| (4X) 
A|-3-3-------3-3---3-3-------3-3----3-3-------3-3---3-3-----| 
 
 
  C              A        F     C            A      F         
G|-9-9-10-9-5-7-7-9-9-10-9-5-7-7-9-9-10-9-5-7-7-10-9-5~-| 
D|----------------------------------------------------~-| 
A|-7-7--8-7-3-5-5-7-7--8-7-3-5-5-7-7--8-7-3-5-5--8-7-3~-| 
 
C              Am         F        
Everything has fallen to pieces, 
C              Am       F 
Earth is dying help me Jesus 
C                  Am          F 
We need guidance, we've been misled, 
C                  Am       F 
young and hostile, but not stupid. 
 
 Break ( Bass ) 
 exibir solos e dicas 
A|---7-----5-----3-| 
E|-5---5-3---3-1---| 
 
C                  Am     F 
Corporate leaders, politicians, 
C                Am            F 
kids can't vote, adults elect them 
C                  Am          F 
Mobs that rule the school and workplace, 
C                   Am         F 
signs that caution, sixteen's unsafe. 
 
 Break ( Bass ) Again 
 
Em              F  C        G 
We really need to see this through, 
Em           F      C  G 
we never wanted to be abused 
Am                F   C       G 
We'll never give up, it's no use, 
Am                F 
if  we're fucked up you're to blame 
 
exibir solos e dicas  C              A        F     C            A      F        
G|-9-9-10-9-5-7-7-9-9-10-9-5-7-7-9-9-10-9-5-7-7-10-9-5~-| 
D|----------------------------------------------------~-| 
A|-7-7--8-7-3-5-5-7-7--8-7-3-5-5-7-7--8-7-3-5-5--8-7-3~-| 
 
C                    Am         F 
Let this train wreck burn more slowly, 
C                Am       F 
kids are victims in this story 
C                    Am      F 
Drown our youth with usless warnings, 
C                     Am          F 
teenage rules they're fucked and boring 
 
 Break ( Bass ) again 
 
Em              F  C        G 
We really need to see this through, 
Em           F      C  G 
we never wanted to be abused 
Am                F   C       G 
We'll never give up, it's no use, 
Am                F 
if  we're fucked up you're to blame 
 
BASS - C A F  (2X) 
 
C              Am         F   
Everything has fallen to pieces, 
C              Am         F  
Everything has fallen to pieces, 
C 
Everything has fallen to pieces, 
C 
Everything has fallen to ... 
 
Em              F  C        G 
We really need to see this through, 
Em           F      C  G 
we never wanted to be abused 
Am                F   C       G 
We'll never give up, it's no use, 
Am                F 
if  we're fucked up you're to blame 
 
exibir solos e dicas  C               D                A               F         
D|-----2p3p2-----2-----2p3p2-----2------2p3p2-----2-----0-0-| (x2) 
A|-3-3-------3-3---3-3-------3-3----3-3-------3-3---3-3-----| 
 
  C               D                A               F        (+ Riff 1 ) 
D|-----2p3p2-----2-----2p3p2-----2------2p3p2-----2-----0-0-| (2X) 
A|-3-3-------3-3---3-3-------3-3----3-3-------3-3---3-3-----| 

	  

Full key step upFull key step up
Half key step upHalf key step up
Half key step downHalf key step down
Full key step downFull key step down
Search Paypal
auto scroll beats size up size down change color hide chords drawings
tab show chords e-chords YouTube Clip e-chords hide all tabs e-chords go to top tab